Song name
# A B C D E F G H I J K L M N O P Q R S T U V W X Y Z

Pinhead Gunpowder - Big Yellow Taxi tab

  Big Yellow Taxi - Pinhead Gunpowder (Green Day singer billie joes other band)
----------------------------------------------------------------------------------

Tabbed by:emily C
Email:

Tuning:standard

e|---------------------------------------------------------------------------|
B|---------------------------------------------------------------------------|
G|---------------------------------------------------------------------------|
D|--9999999999999999-------------------------7777777777777777----------------|
A|--9999999999999999-------------------------7777777777777777----------------|
E|--7777777777777777-------------------------5555555555555555----------------|
  They paved paradise and put up a parking   lot.
  With a pink hotel,a boutique, and a        swinging hot spot.
e|---------------------------------------------------------------------------|
B|---------------------------------------------------------------------------|
G|---------------------------------------------------------------------------|
D|--7-------------7------------5----------------------------4----------------|
A|--7-(let ring)--7------------5----------------------------4----------------|
E|--5-------------4------------3----------------------------2----------------|
  dont it always  seem to go,  that you dont know what you   got till its gone
e|---------------------------------------------------------------------------|
B|---------------------------------------------------------------------------|
G|---------------------------------------------------------------------------|
D|-9999999999999999-------------------------7-----7-7-7-77--7-7-7-79---------|
A|-9999999999999999-------------------------7-----7-7-7-77--7-7-7-79---------| 
E|-7777777777777777-------------------------5-----5-5-5-55--5-5-5-57---------|
  They paved paradise and put up a parking  lot. 



They took all the trees and put 'em in a tree museum.
and charged all the people a dollar and a half to see the

dont it always seem to go, that you dont know what you got till its gone
they paved paradise and put up a parking lot.

Hey farmer,farmer, put away that DDT now
f*** the spots on my apples, leave me the birds and bees-please! 

chorus

Late last night i heard the screen door slam
and a big yellow taxi took away my old man

chorus x2



===============================================================================
Tap to rate this tab
# A B C D E F G H I J K L M N O P Q R S T U V W X Y Z