Song name
# A B C D E F G H I J K L M N O P Q R S T U V W X Y Z

Pinhead Gunpowder - The Great Divide tab

Just listen to the song to find out the rhythm… you can be creative with palm
muting and such. Enjoy!

INTRO
--------------------------------------|
--------------------------------------|
---7----------------------------------|
---7-----------------------7---5---7--|
---5-----------------------7---5---7--|
---------------------------5---3---5--|

whatever happened to yours truly?

VERSE
------------------------------------------|
------------------------------------------|
------------------------------------------|
-------5555555555555555-7777777777777777--|
-------5555555555555555-7777777777777777--|
-------3333333333333333-5555555555555555--|

now I’m so spun, so high strung, I can’t even sleep
I just lie in bed awake, grinding down my teeth
get back up to go back out and walk the same old streets

---------------------------------------------------------------|
---------------------------------------------------------------|
------7--7-----9--9---------7777777777777777-9999999999999999--|
------7--7-----9--9---------7777777777777777-9999999999999999--|
------5--5-----7--7---------5555555555555555-7777777777777777--|
---------------------------------------------------------------|

always searching, something missing, never satisfied…

---------------------------------------------|
---------------------------------------------|
-------7---------7---------7-----------------|
-------7---------7---------7----------7-7-7--|
-------5---------5---------5----------7-7-7--|
--------------------------------------5-5-5--|

whatever happened to, whatever happened to, whatever happened to you?

VERSE TWO
------------------------------------------|
------------------------------------------|
------------------------------------------|
-------5555555555555555-7777777777777777--|
-------5555555555555555-7777777777777777--|
-------3333333333333333-5555555555555555--|

now you laugh at how you used to care, you laugh at how you tried
talk about how you weren’t always tired all the time
you laugh at how we’re going nowhere, and then you ask me why

---------------------------------------------------------------|
---------------------------------------------------------------|
------7--7-----9--9---------7777777777777777-9999999999999999--|
------7--7-----9--9---------7777777777777777-9999999999999999--|
------5--5-----7--7---------5555555555555555-7777777777777777--|
---------------------------------------------------------------|

we never do anything fun anymore, well we’re not much fun anymore…

PRE-BRIDGE
-------------------------------------------------------------------------------------|
-------------------------------------------------------------------------------------|
-------7---------7---------7---------------------------------------------------------|
-------7---------7---------7----------7-7-7------4-4-4-------------------------------|
-------5---------5---------5----------7-7-7------4-4-4-------------------------------|
--------------------------------------5-5-5------2-2-2-------------------------------|

whatever happened to, whatever happened to, whatever happened to you and me? whatever
happened to a community?

---------------------------------------------------------------------------------------|
---------------------------------------------------------------------------------------|
------7777777777777777-9999999999999999------------------------------------------------|
------7777777777777777-9999999999999999------------------------------------------------|
------5555555555555555-7777777777777777------------------------------------------------|
---------------------------------------------------------------------------------------|

do you think that we’ll go down in history?

---------------------------------------------------------------------------------------|
---------------------------------------------------------------------------------------|
---------------------------------------------------------------------------------------|
-------7777777777777777-4444444444444444-----------------------------------------------|
-------7777777777777777-4444444444444444-----------------------------------------------|
-------5555555555555555-2222222222222222-----------------------------------------------|

or will we just be forgotten? I don’t want to be forgotten

---------------------------------------------------------------------------------------|
---------------------------------------------------------------------------------------|
------7777777777777777--9999999999999999-----------------------------------------------|
------7777777777777777--9999999999999999-----------------------------------------------|
------5555555555555555--7777777777777777-----------------------------------------------|
---------------------------------------------------------------------------------------|
 I’m so scared of being forgotten, that’s my problem I’m so scared…

FILL
--------------------------------------------------------------------------------------|
----------999---10----7---------------------------------------------------------------|
--------------------------------------------------------------------------------------|
--------------------------------------------------------------------------------------|
--------------------------------------------------------------------------------------|
--------------------------------------------------------------------------------------|

(first guitar repeats fill while second guitar still plays “E” from last verse)

BRIDGE
---------------------------------------------------------------------------------------|
---------------------------------------------------------------------------------------|
------7777777777777777-9999999999999999------------------------------------------------|
------7777777777777777-9999999999999999-----7-777777777777777--------------------------|
------5555555555555555-7777777777777777-----7-777777777777777--------------------------|
------------------------------------------------------------5-555555555555555----------|

we used to say, “Look both ways before you cross our path”

---------------------------------------------------------------------------------------|
---------------------------------------------------------------------------------------|
------77777777-99999999---7777777777777777-9999999999999999----------------------------|
------77777777-99999999---7777777777777777-9999999999999999----------------------------|
------55555555-77777777---5555555555555555-7777777777777777----------------------------|
---------------------------------------------------------------------------------------|

now we both turn away, and now there’s nothing left to fill the gap between…

(on between second guitar comes in with FILL again)

LAST VERSE
--------------------------------------------------------------------------------------|
--------------------------------------------------------------------------------------|
-------7---------7---------7----------------------------------------------------------|
-------7---------7---------7----------7-7-7-------------------------------------------|
-------5---------5---------5----------7-7-7-------------------------------------------|
----------------------------------------5-5-5-----------------------------------------|

whatever happened to, whatever happened to, whatever happened to us?

---------------------------------------------------------------------------------------|
---------------------------------------------------------------------------------------|
---------------------------------------------------------------------------------------|
-------5555555555555555-7777777777777777-----------------------------------------------|
-------5555555555555555-7777777777777777-----------------------------------------------|
-------3333333333333333-5555555555555555-----------------------------------------------|

do you think that it’s too late to start over again?
you said you’re tired of having to start over again

--------------------------------------------------------------------------------------|
--------------------------------------------------------------------------------------|
------7--7-----9--9------7--7-----9--9------------------------------------------------|
------7--7-----9--9------7--7-----9--9------------------------------------------------|
------5--5-----7--7------5--5-----7--7------------------------------------------------|
--------------------------------------------------------------------------------------|

that’s your problem, you’re so tired, that’s my problem, I’m so scared

--------------------------------------------------------------------------------------|
--------------------------------------------------------------------------------------|
------777777777777777777777777--99999999----------------------------------------------|
------777777777777777777777777--99999999----------------------------------------------|
------555555555555555555555555--77777777----------------------------------------------|
--------------------------------------------------------------------------------------|

that it’s too late, it’s too late, it’s too late to start over again

OUTRO

--------------------------------------------------------------------------------------|
--------------------------------------------------------------------------------------|
----------7--6---------7--6-----------7--6--------------------------------------------|
----------7--6--7-----7--6--7--------7--6--7-------7777-------------------------------|
----------5--4--7-----5--4--7--------5--4--7-------7777-------------------------------|
----------------5-----------5--------------5-------5555-------------------------------|

That’s it!
Tap to rate this tab
 
# A B C D E F G H I J K L M N O P Q R S T U V W X Y Z