Guitaretab - guitar tabs
Song name
# A B C D E F G H I J K L M N O P Q R S T U V W X Y Z

Pinhead Gunpowder - At Your Funeral tab

Pinhead Gunpowder-At Your Funeral
from Compulsive Disclosure

(strumming isnt right but you can figure it out)

verse 1:
e----------------------|
B----------------------|
G-555-----888----------|
D-555-666-888-888------|     x2
A-333-666-666-888------|
E-----444-----666------|
 At your funeral.....

chorus:
e------------------------------------|
B------------------------------------|
G-888------------666-888---------888-|
D-888-101010-666-666-888-888-666-888-|
A-666-101010-666-444-666-888-666-666-|
E-----8-8-8--444---------666-444-----|
 Wait 'til they read....
[ Tab from: http://www.guitaretab.com/p/pinhead-gunpowder/145430.html ]
verse 2:
e--------------------------|
B--------------------------|
G-888------------666-888---|
D-888-101010-666-666-888---|  x2
A-666-101010-666-444-666---|
E-----8-8-8--444-----------|
 Lies I didn't want.....

chorus 2:
e---------------------------------------|
B---------------------------------------|
G------------888-----888--------888-----|
D-101010-666-888-888-888-101010-888-888-|
A-101010-666-666-888-666-101010-666-888-|
E-8-8-8--444-----666-----8-8-8------666-|
 Day. At your funeral...

ending:
e--------------------------------------------------|
B--------------------------------------------------|
G-888------------666-888---------888---------888---|
D-888-101010-666-666-888-888-666-888-888-666-888-8-|
A-666-101010-666-444-666-888-666-666-888-666-666-8-|
E-----8-8-8--444---------666-444-----666-444-----6-|
 Wait til they read...
Related for At Your Funeral tab
×
At Your Funeral