Song name
# A B C D E F G H I J K L M N O P Q R S T U V W X Y Z

Pinhead Gunpowder - Buffalo tab

Band: Pinhead Gunpowder
Song: Buffalo
Album: Compulsive Disclosure


Intro:
-2-0-----|
-3-2-----|
-2-2-3---|
-0-2-4---|
-0-0-4---|
-----2---|
Verse:
-2-222222------------00000000000000--|
-3-333333-2-222222---00000000000000--|
-2-222222-2-222222---11111111111111--|
-0-000000-2-222222-2-22222222222222--|
----------0-000000-2-22222222222222--|
-------------------0-00000000000000--|

Third line play:
----------------------------------|
----------------------------------|
-2-2-2-2--------------------------|
-0-0-0-0-2-2-2-2-4-44444444444444-|
---------0-0-0-0-4-44444444444444-|
-----------------2-22222222222222-|

Chorus:
---------------------------------------------------------------00000000000000-----|
---------------------7-7-77-7-5-7-5-7--------------------------00000000000000-----|
-4-4-44-4-4-4-4-4----7-7-77-7-5-7-5-7-----6-6-66-6-4-6-4-6-----11111111111111-----|
-4-4-44-4-4-4-4-4----7-7-77-7-5-7-5-7-00--7-7-77-7-5-7-5-7------------------------|
-2-2-22-2-0-2-0-2-00-5-5-55-5-3-5-3-5-00--7-7-77-7-5-7-5-7------------------------|
------------------------------------------5-5-55-5-3-5-3-5-33-0-------------------|

---------------------|
---------------------|
-9-9-7-9--7-9-7-9----|
-9-9-7-9--7-9-7-9----|
-7-7-5/7--5/7-5/7-00-|
---------------------|

-2--3-2---0-0----2--3-2--------------------|
-3-----3--2-0-2--3------3-3333333333333333-|
-2--------2----2-2--------4444444444444444-|
-0-0------2------0-0------4444444444444444-|
----------0---------------2222222222222222-|

Outro:
-----------------2-2222-22-22-22-------------------0-0000-0-00-00-00-|
-0-0000-00-00-00-3-3333-33-33-33-2-2222-2-22-22-22-0-0000-0-00-00-00-|
-4-4444-44-44-44-2-2222-22-22-22-2-2222-2-22-22-22-1-1111-1-11-11-11-|
-4-4444-44-44-44-0-0000-00-00-00-2-2222-2-22-22-22-2-2222-2-22-22-22-|
-2-2222-22-22-22-----------------0-0000-0-00-00-00-2-2222-2-22-22-22-|
---------------------------------------------------0-0000-0-00-00-00-|

At the very end, the -0-- (E) chord strums for a little longer.
                     -0--
                     -1--
                     -2--
                     -2--
                     -0--
Tap to rate this tab
# A B C D E F G H I J K L M N O P Q R S T U V W X Y Z