Song name
# A B C D E F G H I J K L M N O P Q R S T U V W X Y Z

Pinhead Gunpowder - 27 tab

*=Palm Mute
Intro
E|------------------------------------------------------------------------|
B|------------------------------------------------------------------------|
G|------------------------------------------------------------------------|
D|--7-------------7-------------7-------------7---------------------------|
A|--5-7777777777--5-7777777777--5-7777777777--5-7777777777----------------|
E|----5555555555----5555555555----5555555555----5555555555----------------|

Verse X2
E|------------------------------------------------------------------------|
B|------------------------------------------------------------------------|
G|------------------------------------------------------------------------|
D|--------7777------------------------------------------------------------|
A|--7777--5555--5555--2222------------------------------------------------|
E|--5555--------3333--0000------------------------------------------------|

Coruse X2
E|------------------------------------------------------------------------|
B|------------------------------------------------------------------------|
G|------------------------------------------------------------------------|
D|------------------------------------------------------------------------|
A|--777777777777777777777--7777777777-------------------------------------|
E|--555555555555555555555--5555555555-------------------------------------|
     ** ** ** ** ** ** **

E|------------------------------------------------------------------------|
B|------------------------------------------------------------------------|
G|------------------------------------------------------------------------|
D|--7-------------7-------------7-------------7---------------------------|
A|--5-7777777777--5-7777777777--5-7777777777--5-7777777777----------------|
E|----5555555555----5555555555----5555555555----5555555555----------------|

Verse X4
E|------------------------------------------------------------------------|
B|------------------------------------------------------------------------|
G|------------------------------------------------------------------------|
D|--------7777------------------------------------------------------------|
A|--7777--5555--5555--2222------------------------------------------------|
E|--5555--------3333--0000------------------------------------------------|

Coruse X2
E|------------------------------------------------------------------------|
B|------------------------------------------------------------------------|
G|------------------------------------------------------------------------|
D|------------------------------------------------------------------------|
A|--777777777777777777777--7777777777-------------------------------------|
E|--555555555555555555555--5555555555-------------------------------------|
     ** ** ** ** ** ** **

E|------------------------------------------------------------------------|
B|------------------------------------------------------------------------|
G|------------------------------------------------------------------------|
D|--7-------------7-------------7-------------7---------------------------|
A|--5-7777777777--5-7777777777--5-7777777777--5-7777777777--7-------------|
E|----5555555555----5555555555----5555555555----5555555555--5-------------|

Tap to rate this tab
 
# A B C D E F G H I J K L M N O P Q R S T U V W X Y Z