Song name
# A B C D E F G H I J K L M N O P Q R S T U V W X Y Z

Placebo - Puremorning tab

Placebo - Pure Morning 

Verse 
|-----------| 
|-----------| 
|--9-9-9-9--|
|--9-9-9-9--| 
|--7-7-7-7--| 
|--0-0-0-0--| 

Chorus (day's dawning / pure morning parts) 

|----------------------------------| 
|----------------------------------| 
|--9-9-9-9-9-13-13-13-14-14-14-14--| 
|--9-9-9-9-9-13-13-13-14-14-14-14--|
|--7-7-7-7-7-11-11-11-12-12-12-12--| 
|----------------------------------| 
day's daw... 

|-------------------------| 
|-------------------------| 
|--9-9-9-9-9-6-6-6-7-7-7--| 
|--9-9-9-9-9-6-6-6-7-7-7--| 
|--7-7-7-7-7-4-4-4-5-5-5--| 
|-------------------------| 
skin's crawli...
Tap to rate this tab
# A B C D E F G H I J K L M N O P Q R S T U V W X Y Z