Song name
# A B C D E F G H I J K L M N O P Q R S T U V W X Y Z

Placebo - Scared Of Girls tab

-------------------------------------------------------------------------------
			     SCARED OF GIRLS - Placebo
-------------------------------------------------------------------------------
Tabbed by:Luis Gustavo Hernández Collado
Email:ltavo_87@hotmail.com

Tuning:EADGBE

Intro
e|---------------|
B|---------------|
G|---------------|
D|---------------|
A|88--88--88--88-|
E|66--66--66--66-|

e|--------------------------------|
B|--------------------------------|
G|--------------------------------|X2
D|-8888/11111111-8888/11111111/13-|
A|-8888/11111111-8888/11111111/13-|
E|-6666/9-9-9-9--6666/9-9-9-9-/11-|

Verse 1
(An introverted kinda soul, the earth did open, swallow whole...)
e|--------------------------------|
B|--------------------------------|
G|--------------------------------|X2
D|-8888/11111111-8888/11111111/13-|
A|-8888/11111111-8888/11111111/13-|
E|-6666/9-9-9-9--6666/9-9-9-9-/11-|

(Careenin'...)
e|-----------------------------------|
B|-----------------------------------|
G|-----------------------------------|X2
D|-----------------------------------|
A|-88-88-8-8/99-9-9-88-99-9-9/88-8-8-|
E|-66---------------66---------------|

(Her next of kin who lived in sin, was askin' god to let her in...)
e|--------------------------------|
B|--------------------------------|
G|--------------------------------|X2
D|-8888/11111111-8888/11111111/13-|
A|-8888/11111111-8888/11111111/13-|
E|-6666/9-9-9-9--6666/9-9-9-9-/11-|

(Careenin'...)
e|-----------------------------------|
B|-----------------------------------|
G|-----------------------------------|X2
D|-----------------------------------|
A|-88-88-8-8/99-9-9-88-99-9-9/88-8-8-|
E|-66---------------66---------------|

Chorus 1
(I'm a man, a liar, guaranteed in your bed...)
Guitar 1
e|-------------------------------------------|
B|-------------------------------------------|
G|-------------------------------------------|X6
D|----------------10-8----------------10-11--|
A|----88-8/99-9-9---------88-8/99-9-9--------|
E|6-6-----------------6-6--------------------|

Guitar 2
e|--------------------------------|
B|--------------------------------|
G|--------------------------------|X6
D|-8888/11111111-8888/11111111/13-|
A|-8888/11111111-8888/11111111/13-|
E|-6666/9-9-9-9--6666/9-9-9-9-/11-|

Verse 2
(An extroverted kinda girl, did tour the world with MC5...)
e|--------------------------------|
B|--------------------------------|
G|--------------------------------|X2
D|-8888/11111111-8888/11111111/13-|
A|-8888/11111111-8888/11111111/13-|
E|-6666/9-9-9-9--6666/9-9-9-9-/11-|

(Careenin'...)
e|-----------------------------------|
B|-----------------------------------|
G|-----------------------------------|X2
D|-----------------------------------|
A|-88-88-8-8/99-9-9-88-99-9-9/88-8-8-|
E|-66---------------66---------------|

(Her younger sister, had a blister, where I kissed her on her thigh...)
e|--------------------------------|
B|--------------------------------|
G|--------------------------------|X2
D|-8888/11111111-8888/11111111/13-|
A|-8888/11111111-8888/11111111/13-|
E|-6666/9-9-9-9--6666/9-9-9-9-/11-|

(Careenin'...)
e|-----------------------------------|
B|-----------------------------------|
G|-----------------------------------|X2
D|-----------------------------------|
A|-88-88-8-8/99-9-9-88-99-9-9/88-8-8-|
E|-66---------------66---------------|

Chorus 2
(I'm a man, a liar, guaranteed in your bed...)
Guitar 1
e|-------------------------------------------|
B|-------------------------------------------|
G|-------------------------------------------|X6
D|----------------10-8----------------10-11--|
A|----88-8/99-9-9---------88-8/99-9-9--------|
E|6-6-----------------6-6--------------------|

Guitar 2
e|--------------------------------|
B|--------------------------------|
G|--------------------------------|X6
D|-8888/11111111-8888/11111111/13-|
A|-8888/11111111-8888/11111111/13-|
E|-6666/9-9-9-9--6666/9-9-9-9-/11-|

Interlude
e|--998888---886666--664444--442222--221111-|
B|------------------------------------------|
G|------------------------------------------|
D|------------------------------------------|
A|88------88-------88------88------88-------|
E|66------66-------66------66------66-------|

e|--221111------|
B|--------------|
G|--------------|X3
D|--------------|
A|88------------|
E|66------------|

Chorus 3/Outro
(I'm a man, a liar, guaranteed in your bed...)
Guitar 1
e|-------------------------------------------|
B|-------------------------------------------|
G|-------------------------------------------|X8
D|----------------10-8----------------10-11--|
A|----88-8/99-9-9---------88-8/99-9-9--------|
E|6-6-----------------6-6--------------------|

Guitar 2
e|--------------------------------|
B|--------------------------------|
G|--------------------------------|X8
D|-8888/11111111-8888/11111111/13-|
A|-8888/11111111-8888/11111111/13-|
E|-6666/9-9-9-9--6666/9-9-9-9-/11-|

(...got a place inside it...)
e|---------------|
B|---------------|
G|---------------|
D|33--33--33--33-|
A|11--11--11--11-|
E|---------------|
Tap to rate this tab
 
# A B C D E F G H I J K L M N O P Q R S T U V W X Y Z