Song name
# A B C D E F G H I J K L M N O P Q R S T U V W X Y Z

Pro-pain - Stand My Ground tab

part 1a:

E|-----------------------------------------------------------------------|
B|-----------------------------------------------------------------------|
G|-----------------------------------------------------------------------|
D|--------------9--------------7--------------9--------------------------|
A|--------------7--------------5--------------7--------------8--7--5--7--|
E|--0--0--0--0-----0--0--0--0-----0--0--0--0-----0--0--0--0--6--5--3--5--|

part 1b:

E|-------------------------------------------------------------------|
B|-------------------------------------------------------------------|
G|-------------------------------------------------------------------|
D|--------------9--------------7--------------9----------------------|
A|--------------7--------------5--------------7--------------8--7--5-|
E|--0--0--0--0-----0--0--0--0-----0--0--0--0-----0--0--0--0--6--5--3-|

part 2a:

E|--------------|
B|--------------|
G|--------------|
D|--------------|
A|--7--8--5--8--|
E|--5--6--3--6--|

part 2b:

E|--------------|
B|--------------|
G|--------------|
D|--------------|
A|--7--8--5--3--|
E|--5--6--3--1--|

part 3a:

E|---------------------------------------------------|
B|---------------------------------------------------|
G|---------------------------------------------------|
D|--------9--------7--------9--------10--10--10--10--|
A|--------7--------5--------7--------8---8---8---8---|
E|--0--0-----0--0-----0--0-----0--0------------------|

part 3b:

E|--------------------------------------------------|
B|--------------------------------------------------|
G|--------------------------------------------------|
D|--------9--------7--------9-----------------------|
A|--------7--------5--------7--------8--8--8--8-----|
E|--0--0-----0--0-----0--0-----0--0--6--6--6--6-----|

part 3a:

E|---------------------------------------------------|
B|---------------------------------------------------|
G|---------------------------------------------------|
D|--------9--------7--------9--------10--10--10--10--|
A|--------7--------5--------7--------8---8---8---8---|
E|--0--0-----0--0-----0--0-----0--0------------------|


Stave 3c:

E|--------------------------------------------|
B|--------------------------------------------|
G|--------------------------------------------|
D|--------9--------7--------9-----------------|
A|--------7--------5--------7--------8--7--5--|
E|--0--0-----0--0-----0--0-----0--0--6--5--3--|

...solo and cont'd parts above...

part 4:

E|--------------------------------------------------------------|
B|--------------------------------------------------------------|
G|--------------------------------------------------------------|
D|--------------------------------------------------------------|
A|--7--7--7--7--7--7--7--7--7--7--7--7--8--8--8--8--5--5--5--5--|
E|--5--5--5--5--5--5--5--5--5--5--5--5--6--6--6--6--3--3--3--3--|
Tap to rate this tab
# A B C D E F G H I J K L M N O P Q R S T U V W X Y Z