Song name
# A B C D E F G H I J K L M N O P Q R S T U V W X Y Z

Prodigy - Wild West tab

------------------------------------------------------------------------------
                          WILD WEST - The Prodigy
------------------------------------------------------------------------------
Tabbed by: Sleight
Email: sleighttabs[at]gmail[dot]com

Tuning: Normal (EADGBe)


Intro: (0:00 - 0:12)
e|--------------------------------------------------------------|
B|--------------------------------------------------------------|
G|--------------------------------------------------------------|
D|-----------------------9--11-11--------4p2-4p2-4p2/14~~-------| 1x
A|----4--7--11--------9--7--9--9---9--9-------------------------|
E|----2--5--9---------7-----------------------------------------|


Chorus: (0:12 - 0:23)
e|--------------------------------------------------------------|
B|--------------------------------------------------------------|
G|--------------------------------------------------------------|
D|-----------------------9--11-----------------------14~~-------| 1x
A|----4--7--11--------9--7--9-----------------------------------|
E|----2--5--9---------7-----------------------------------------|


No Guitar: (0:23 - 0:42)


Bridge 1: (0:42 - 1:07)
e|--------------------------------------------------------------|
B|--------------------------------------------------------------|
G|--------------------------------------------------------------|
D|----4---7------------------------------------------14~~-------| 2x
A|------------4------------2------------------------------------|
E|-----------------------------0---2----------------------------|


Chorus: (1:09 - 1:43)
e|--------------------------------------------------------------|
B|--------------------------------------------------------------|
G|--------------------------------------------------------------|
D|-----------------------9--11-----------------------14~~-------| 3x
A|----4--7--11--------9--7--9-----------------------------------|
E|----2--5--9---------7-----------------------------------------|


Bridge 2:(1:45 - 2:18)
e|-------------------------------------------------------|
B|-------------------------------------------------------|
G|-------------------------------------------------------|
D|-------------------------------------------------------| 1x
A|---------------------------7--9--9-9--9--9-9--9--9-9---|
E|----2--5--9--9--9--9-9--7------------------------------|

e|-------------------------------------------------------|
B|-------------------------------------------------------|
G|-------------------------------------------------------|
D|-------------------------------------------------------| 1x
A|---------------------------7--(9--9-9)8x---------------|
E|----2--5--9--9--9--9-9--7------------------------------|


Bridge 1: (2:23 - 2:48)
e|--------------------------------------------------------------|
B|--------------------------------------------------------------|
G|--------------------------------------------------------------|
D|----4---7------------------------------------------14~~-------| 2x
A|------------4------------2------------------------------------|
E|-----------------------------0---2----------------------------|


No Guitar: (2:49 - 3:12) (what you hear is bass)


Short Interlude: (3:12 - 3:14)
e|------------------|
B|------------------|
G|------------------|
D|------------------| 1x
A|----9--9--9--9----|
E|------------------|


Chorus: (3:14 - 3:36)
e|--------------------------------------------------------------|
B|--------------------------------------------------------------|
G|--------------------------------------------------------------|
D|-----------------------9--11-----------------------14~~-------| 2x
A|----4--7--11--------9--7--9-----------------------------------|
E|----2--5--9---------7-----------------------------------------|


Short Interlude: (3:37 - 3:41)
e|------------------|
B|------------------|
G|------------------|
D|------------------| 3x
A|----9--9--9--9----|
E|------------------|


Chorus: (3:42 - 4:04)
e|--------------------------------------------------------------|
B|--------------------------------------------------------------|
G|--------------------------------------------------------------|
D|-----------------------9--11-----------------------14~~-------| 2x
A|----4--7--11--------9--7--9-----------------------------------|
E|----2--5--9---------7-----------------------------------------|


Short Interlude: (4:04 - 4:11)
e|------------------|
B|------------------|
G|------------------|
D|------------------| 4x
A|----9--9--9--9----|
E|------------------|

Send mail for questions or any mistakes.
Tap to rate this tab
# A B C D E F G H I J K L M N O P Q R S T U V W X Y Z