Song name
# A B C D E F G H I J K L M N O P Q R S T U V W X Y Z

Promise Ring - Forget Me tab

Title: Forget Me
Album: Nothing Feels Good
Tabbed by: Kris Johansen - krisjohansen@guitarsrule.com
Tuning: EGCGCE


Intro/Verse. Slight gain.
    
             x2               x2               x1

e-----------------0--|--------------0--|------------------0--------|
C-----------------0--|--------------0--|------------------0--------|
G--------0--------0--|-----0--------0--|------------------0--------|
C--------0-----------|-----0-----------|-------0-------------------|x3
G---5-5-----5--5-----|-4-4----4--4-----|-------0-------------------|
E--------------------|-----------------|--1-1-------1-1------------|


         x1      "All trees are oaks..."
e-----------------|
C-----------------|
G-----------------|
C---0-0--0-0------|
G---5-5--7-7--12--|
E-----------------|

            F                  E/F        C 
Chorus "but forget me nots and marigolds nothings they 

dont get old they dont get old"
 

     F    E/F     C
e----------------------------------------------------------------|
C----0----0-------7----------------------------------------------|
G----0----0-------0----------------------------------------------|
C---12---12-------7----------------------------------------------|
G---10---9--------5----------------------------------------------|
E----------------------------------------------------------------|


"I married a room"

e-------|---------------------------------------------------------|
C---7---|-4---5---7-----------------------------------------------|
G---0---|-0---0---0-----------------------------------------------|
C---7---|-0---0---0-----------------------------------------------|
G---5---|-5---7---9-----------------------------------------------|
E-------|---------------------------------------------------------|

This little bit above is repeated after the second chorus
a few more times then theres the bit below before the final chorus.

*=16x.

e---------------------------------------------------------------|
C---*----*------------------------------------------------------|
G---0----0------------------------------------------------------|
C---7---12------------------------------------------------------|
G---5---10------------------------------------------------------|
E---------------------------------------------------------------|
Tap to rate this tab
# A B C D E F G H I J K L M N O P Q R S T U V W X Y Z