Song name
# A B C D E F G H I J K L M N O P Q R S T U V W X Y Z

Promise Ring - Emergency Emergency tab

Title: Emergency! Emergency!
Album: Very Emergency
Tabbed by: Kris Johansen - krisjohansen@guitarsrule.com

Intro/chorus Chords - the chord in brackets is sort of a transition
chord you play on your way from the C# to the E.


  B  A C#  E     B   A   C# D#  E
e----------------------------------------------------------------------|
B----------------------------------------------------------------------|
G----------------------------------------------------------------------|
D-9--7--6--2-----9---7---6--(8)--9-------------------------------------|
A-9--7--4--2-----9---7---4--(6)--7-------------------------------------|
E-7--5-----0-----7---5-------------------------------------------------|
    4x  4x  3x  1x  4x 


Lead thingy. play twice.

e---------------------------------------------------------------------------|
B---------------------------------------------------------------------------|
G--11-11-11-11-11-11-9-8-9------------11-11-11-11-11-11-9-8-9-11-11/13--11--|
D--------------------------9--9/11-9----------------------------------------|
A---------------------------------------------------------------------------|
E---------------------------------------------------------------------------|

Verse chords

    B  A  E   E     - I think 1 guitar plays low E, other high E
e----------------------------------------------------------------------|
B----------------------------------------------------------------------|
G---------1---9--------------------------------------------------------|
D---9--7--2---9--------------------------------------------------------|
A---9--7--2---7--------------------------------------------------------|
E---7--5--0------------------------------------------------------------|


    B               A                B   
Sometimes I wake up early to say goodbye

        A                  B
just in case you dont come back

      A                  B   
and I know the coffee by car

       A                 E 
cos it goes fast really far, then thats where you are


Bridge - "so when I come around 
some lost and some found..."

The colons mean repeat those two phrases :)
                              
e--------------|-----------|--------------------------------------------|
B--------------|-----------|--------------------------------------------|
G--------------|--------9-:|--9-------9--9-----9--9--9------------------|
D--9--7-----4--|--9--7--9--|--9-------9--9-----9--9--9------------------|
A--9--7--7--4--|--9--7--7-:|--7-------7--7-----7--7--7------------------|
E--7--5--4--2--|--7--5-----|--------------------------------------------|


Lead under last singing bit "baby its an s.o.s" - its the same as the 
other lead just an octave lower.

e----------------------------------------------------------------------|
B----------------------------------------------------------------------|
G----------------------------------------------------------------------|
D--4-4-4-4-4-4-2-1-2-1----------4-4-4-4-4-4-2-1-2-4-4/6-4--------------|
A----------------------2-2/4-2-----------------------------------------|
E----------------------------------------------------------------------|

then play the higher version over the chorus chords and your done.

Enjoy!
Tap to rate this tab
 
# A B C D E F G H I J K L M N O P Q R S T U V W X Y Z