Psychostick - Beer tab

-------------------------------------------------------------------------------
			     Beer-Psychostick
-------------------------------------------------------------------------------
Tabbed by:
Email: jdmoon96@yahoo.com

I've seen a few tabs for Drop C tuning, but (being new and all) I didn't really want to 
tune from standard to play one song.
So I watched someone play it in drop D.
Be warned, this is only from me WATCHING them play it once, so it may be off at parts 
because of my memory.

Tuning: Drop D (D A D G b e)
Intro
e|---------------------------------------|
B|---------------------------------------|
G|---------------------------------------|
D|---------------------------------------|
A|---------------------------------------|
D|-0-0-0-0-0-0-0-1-----------------------| x 7

e|-----------|
B|-----------|
G|-----------|
D|-----------|
A|-----------|
D|-0-0-0-0-0-|




Chorus


e|---------------------------------------------------------------------------|
B|---------------------------------------------------------------------------|
G|---------------------------------------------------------------------------|
D|---------------------------------------------------------------------------|
A|-0---0---0-----0---0---0-----0---0---0-----0---0---------------------------|
D|-0---0---0-----0---0---0-----0---0---0-----0---0---------------------------|
 (Beer is good, beer is good, beer is good. And stuff!)



e|----------------------------------------------------------------------------|
B|----------------------------------------------------------------------------|
G|----------------------------------------------------------------------------|
D|----------------------------------------------------------------------------|
A|-0---0----0-----0---0---0-----0---0---0-------------------------------------|
D|-0---0----0-----0---0---0-----0---0---0-------------------------------------|
  (Beer is good, beer is good, beer is good! Let's go drink some...)
e|---------------------------------------------------------------------------|
B|---------------------------------------------------------------------------|
G|---------------------------------------------------------------------------|
D|---------------------------------------------------------------------------|
A|-0-0-1p0-0-0-0-3p0--0-0-0-1p0-0-2-3-2-1-0-0-1p0-0-0-0-3p0-0-1-0-1-0-0------|
D|-0-0-1p0-0-0-0-3p0--0-0-0-1p0-0-2-3-2-1-0-0-1p0-0-0-0-3p0-0-1-0-1-0-0------|
   Beer! Beer! Beer! Beer! Beer, Beer, Beer, Beer, Beer, Beer.
*(The pull-offs are optional)

Verse

e|---------------------------------------|
B|---------------------------------------|
G|---------------------------------------|
D|---------------------------------------|
A|---------------------------------------|
D|-0-0-0-0-0-0-0-1-----------------------| x 10

e|-----------|
B|-----------|
G|-----------|
D|-----------|
A|-----------|
D|-0-0-0-0-0-|

Chorus


e|---------------------------------------------------------------------------|
B|---------------------------------------------------------------------------|
G|---------------------------------------------------------------------------|
D|---------------------------------------------------------------------------|
A|-0---0---0-----0---0---0-----0---0---0-----0---0---------------------------|
D|-0---0---0-----0---0---0-----0---0---0-----0---0---------------------------|
 (Beer is good, beer is good, beer is good. And stuff!)


e|----------------------------------------------------------------------------|
B|----------------------------------------------------------------------------|
G|----------------------------------------------------------------------------|
D|----------------------------------------------------------------------------|
A|-0---0----0-----0---0---0-----0---0---0-------------------------------------|
D|-0---0----0-----0---0---0-----0---0---0-------------------------------------|
  (Beer is good, beer is good, beer is good! Let's go drink some...)
e|---------------------------------------------------------------------------|
B|---------------------------------------------------------------------------|
G|---------------------------------------------------------------------------|
D|---------------------------------------------------------------------------|
A|-0-0-1p0-0-0-0-3p0--0-0-0-1p0-0-2-3-2-1-0-0-1p0-0-0-0-3p0-0-1-0-1-0-0------|
D|-0-0-1p0-0-0-0-3p0--0-0-0-1p0-0-2-3-2-1-0-0-1p0-0-0-0-3p0-0-1-0-1-0-0------|
   Beer! Beer! Beer! Beer! Beer, Beer, Beer, Beer, Beer, Beer.
*(The pull-offs are optional)

Bridge

e|---------------------------------------------------------------------|
B|---------------------------------------------------------------------|
G|---------------------------------------------------------------------|
D|---------------------------------------------------------------------|
A|--1-0-0-0-3-0-0-0-1-0-0-0-2-3-2-1-1-0-0-0-3-0-0-0-1-0-0-0-2-3-2-(1)--|
D|--1-0-0-0-3-0-0-0-1-0-0-0-2-3-2-1-1-0-0-0-3-0-0-0-1-0-0-0-2-3-2-(1)--|

Do that x4, the last time without the 1 in parenthesis (1). Then play:

e|---------------------------------------|
B|---------------------------------------|
G|---------------------------------------|
D|---------------------------------------|
A|---------------------------------------|
D|-0-0-1-0-0-0-0-0-0-0-1-0-0-0-0-0-------|

(Dude, I think you've had enough!)

e|-------------------------------------------------------------------------|
B|-------------------------------------------------------------------------|
G|-------------------------------------------------------------------------|
D|-------------------------------------------------------------------------|
A|1-0-(0)-0-3-0-(0)-0-1-0-(0)-0-2-3-2-1-1-0-(0)-0-3-(0)-0-0-1-0-0-0-2-3-2--|(1)
D|1-0-(0)-0-3-0-(0)-0-1-0-(0)-0-2-3-2-1-1-0-(0)-0-3-(0)-0-0-1-0-0-0-2-3-2--|(1)
(*inhale*..NOOOOOOOOOOOOOOOOOOOOOOOOOOOOOOOOOOOOOOOOOOOOOOOOOOOOOOOOOOO...)
Do that x5, then

e|----------------------------------------------------------------------|
B|----------------------------------------------------------------------|
G|----------------------------------------------------------------------|
D|----------------------------------------------------------------------|
A|1---0---(0)---0---3---0---(0)---1---1---1---1---0---------------------|
D|1---0---(0)---0---3---0---(0)---1---1---1---1---0---------------------|
                              (Let's go drink some BEER!)

Sadly, I don't have the "I am drunk, drunk is me" part yet,
that may come soon. But yeah, rate this tab for what it's worth, improvements and 
suggestions would be awesome! :3
************************************

| /   slide up
| \   slide down
| h   hammer-on
| p   pull-off
| ~   vibrato
| +   harmonic
| x   Mute note
| b   Bend
| pb  Pre-bend
| br  Bend release
| pbr Pre-bend release
| brb Bend release bend

************************************
Tap to rate this tab
 
# A B C D E F G H I J K L M N O P Q R S T U V W X Y Z