Song name
# A B C D E F G H I J K L M N O P Q R S T U V W X Y Z

Psychostick - Because Boobs tab

----------------------------------------------------------------------------------------------------
                                  BECAUSE BOOBS - Pshycostick
----------------------------------------------------------------------------------------------------


I had to tab this for a friend which is a boy, not because I wanted it for myself (I 
guess I
had to say this because I'm a girl). And because it can't be found anywhere I decided to 
put it here.
It's not 100% correct but it's better than nothing.

D#|--------------------------------------------------------------------------|
A#|--------------------------------------------------------------------------|
F#|-------------------------11----11----11------12-12-12---------------------|
C#|--4-----4-----7-----7----10----10----10------11-11-11---------------------|
G#|--4-----4-----7-----7-----9-----9-----9------10-10-10---------------------|
C#|--4-4-4-4-4-4-7-7-7-7-7-7-9-9-9-9-9-9-9-9-9-------------------------------|
    Happy and bouncy and.........................giggly

D#|--------------------------------------------------------------------------|
A#|--------------------------------------------------------------------------|
F#|--------------------------------------------------------------------------|
C#|--------------------------------------------------------------------------|
G#|------------------------------7p6p4---------------------------------------|
C#|--4-4-4-4h7-4-4-4-7p6p4-4-4-4-------4-4-4--7p6p4-4-4-4-4h7-3~~/7-10-13/0--|
     Now I want you to............................I can cop a feeeeel

D#|--------------------------------------------------------------------------|
A#|--------------------------------------------------------------------------|
F#|----------------------------------------7-7--------7-7--------7-7---------|
C#|----------------------------------------6-6--0-----6-6--0-----6-6---------|
G#|--0-0-4-3-----2p1-6p5-----2p1-7p6-------5-5--0-----5-5--0-----5-5---------|
C#|--0-0-4-3--0--2p1-6p5--0--2p1-7p6--0---------0----------0-----------------|
    I wanna grab'em........................Because boobs

D#|--------------------------------------------------------------------------|
A#|--------7-7--------7-7----------------------------------------------------|
F#|--------6-6--------6-6----------------------------------------------------|
C#|--0-0-0-5-5--0-0-0-5-5----------------------------------------------------|
G#|--0-0-0------0-0-0--------------------------------------------------------|
C#|--0-0-0------0-0-0--------------------------------------------------------|
     * * *      * * *
    Bo-buh-bo-buh-bo.......

D#|--------------------------------------------------------------------------|
A#|--------------------------------------------------------------------------|
F#|--------------------------------------------------------------------------|
C#|--------------------------------------------------------------------------|
G#|--------------------------------------------------------------------------|
C#|--4-4-4-4-4--4-4-4-4-0h4--4-4-4-4-0h4--4-4-4-4-4-4-3----------------------|
     * * * * *  * * * *      * * * *      * * * * * *
(02:50)Now we all know..........................motorboat

D#|--------------------------------------------------------------------------|
A#|--------------------------------------------------------------------------|
F#|--------------------------------------------------------------------------|
C#|--------------------------------------------------------------------------|
G#|---------------------------------7p6p4------------------------------------|
C#|--4-4-4-4h7-4-4-4-7p6p4----4-4-4--------7-10-13/0-------------------------|


D#|--------------------------------------------------------------------------|
A#|--------------------------------------------------------------------------|
F#|--------------------------------------------------------------------------|
C#|---4----------------3------------------2----------------------3-3-3-3-3---|
G#|---4----------------3------------------2----------------------3-3-3-3-3---|
C#|---4--4-4-4-4-4-4-4-3--3-3-3-3-3-3-3-3-2--2-2-2-2-2-2-2--/10--3-3-3-3-3---|
      Don't be a jerk...

D#|-------------------------------------------------------------------|--------------|
A#|-------------------------------------------------------------------|--------------|
F#|-------------------------------------------------------------------|--------------|
C#|----------------------------------------------------------3-3-3-3--|-4-4--4-4-4-4-|
G#|----------------------------------------------------------3-3-3-3--|-4-4--4-4-4-4-|
C#|--4-4-4-4h7-4-4-4-4h6h7-4-4-4-4h7-4-4-4-4h6h7-4-4-4-4h6h7-3-3-3-3--|-4-4--4-4-4-4-|
     Yeah! There's your boobs................                         |add this at the end


********************

  h - hammer on
  p - pull off
  / - slide
  * - palm mute
  ~ - vibrato

********************
Tap to rate this tab
# A B C D E F G H I J K L M N O P Q R S T U V W X Y Z