Song name
# A B C D E F G H I J K L M N O P Q R S T U V W X Y Z

Quiet Riot - Bang Your Head Metal Health tab

ok im not sure if this is right but it sounds like it. I just started playin around and found it


                             here it is
  hold          hold
-----------------------------------------------------------------------------|
-----------------------------------------------------------------------------|
---2-----5--------------------5---2---5---2----------------------------------|
---2-----5-------5-------5----5---2---5---2----2---5---5---------------------|
---0-----3-------5-------5----3---0---3---0----2---5---5---------------------|
-----------------3-------3---------------------0---3---3---------------------|
   123   4       1234    12   3   &   4   1    2   &   3


   hold          hold
-----------------------------------------------------------------------------|
-----------------------------------------------------------------------------|
---2-----5--------------------5---2---5---2----------------------------------|
---2-----5-------5-------5----5---2---5---2----2---5---5---------------------|
---0-----3-------5-------5----3---0---3---0----2---5---5---------------------|
-----------------3-------3---------------------0---3---3---------------------|
   123   4       1234    12   3   &   4   1    2   &   3


  hold          hold
-----------------------------------------------------------------------------|
-----------------------------------------------------------------------------|
---2-----5--------------------5---2---5---2----------------------------------|
---2-----5-------5-------5----5---2---5---2----2---5---5---------------------|
---0-----3-------5-------5----3---0---3---0----2---5---5---------------------|
-----------------3-------3---------------------0---3---3---------------------|
   123   4       1234    12   3   &   4   1    2   &   3

Thats all i got so far but i'll update if i figure out more.


Its pretty easy but its a great song
ROCK ON!!!
-fenderse100
Tap to rate this tab
# A B C D E F G H I J K L M N O P Q R S T U V W X Y Z