Song name
# A B C D E F G H I J K L M N O P Q R S T U V W X Y Z

Rammstein - Ich Will tab

Song: Ich Will (I want)
Band: Rammstein
Album: Mutter
Release: 2001
Tabbed by: Wolston-Pilk
Tuning: drop D


Here's the keyboard part in which Flake plays in the song, i think i've tabbed it 
right!:/ I've tabbed most of what he plays, I don't think many people have tabbed his part
MAIN RIFF:
e|------------------------------------------------|
B|----15-------15----18-------17-------15---------|
G|------------------------------------------------|
D|-12----12-12----12----12-12----12-12------------|
A|------------------------------------------------|
D|------------------------------------------------|

CHORUS: (listen to the song for the correct rhythm)
e|--11~~~~14~13~~10~~~~11~~~~14~10~~7~~~~--------------------|
B|-----------------------------------------------------------|
G|-----------------------------------------------------------|
D|-----------------------------------------------------------|
A|-----------------------------------------------------------|
D|-----------------------------------------------------------|

BRIDGE/INTERLUDE:(listen to the song for the correct rhythm)
e|--13-14-11--14-13-14-11-18--14---|---14-13-14-10-16-14-13-14-10--------|
B|---------------------------------|-------------------------------------|
G|---------------------------------|-------------------------------------|
D|---------------------------------|-------------------------------------|
A|---------------------------------|-------------------------------------|
D|---------------------------------|-------------------------------------|

___________________________________________________________________________

       GUITAR!!!!!!!!!!! (listen to the song to see how many times you play what part, 
simple stuff)
Guitar Intro: (like with the keyboard part, listen to the actual song for the rhythm, 
its pretty easy to get)
e|-------------------------------------------|
B|-------------------------------------------|
G|-------------------------------------------|
D|-------------------------------------------|
A|---5-5-5-5-5---5-5-5-5-5-5-5-5-------------|
D|---0-0-0-0-0---0-0-0-0-0-0-0-0-------------|
              X3


e|-----------------------------------------------------|
B|-----------------------------------------------------|
G|-----------------------------------------------------|
D|---------------3/5-5-5-3-3-3-1-0---------------------|
A|---5-5-5-5-5---3/5-5-5-3-3-3-1-0---------------------|
D|---0-0-0-0-0---3/5-5-5-3-3-3-1-0---------------------|

Verse 2 (the verse where Paul and Richard play):"
"Ich Will eure phantasie"....

e|-----------------------------------|
B|-----------------------------------|
G|-----------------------------------|
D|-----------------------------------|
A|-5-5-5-5-5-------------------------|
D|-0-0-0-0-0-------------------------|

CHORUS!:
e|---------------------------------|------------------------------------|
B|---------------------------------|------------------------------------|
G|---------------------------------|------------------------------------|
D|-0-0-0-0-0-0-0-0-8-8-8-5-5-5-7-7-|-0-0-0-0-0-0-0-0-8-8-8-10-10-10-7-7-|
A|-0-0-0-0-0-0-0-0-8-8-8-5-5-5-7-7-|-0-0-0-0-0-0-0-0-8-8-8-10-10-10-7-7-|
D|-0-0-0-0-0-0-0-0-8-8-8-5-5-5-7-7-|-0-0-0-0-0-0-0-0-8-8-8-10-10-10-7-7-|


Interlude/bridge:"Wie Wollen......"
played with no distortion!!!
e|-----------------------------------------------------------------------|
B|-----------------------------------------------------------------------|
G|-----------------------------------------------------------------------|
D|-----0-------0-------0-------0-------8-------8-------8-------------5---|
A|---0---0---0---0---0---0---0---0---8---8---8---8---8---8---8-7---5---5-|
D|-0-------0-------0-------0-------8-------8-------8-------8---7-5-------|

|-----------------------------------------------------------------|
|-----------------------------------------------------------------|
|-----------------------------------------------------------------|
|-----5-------5-------5-------7-------7-------7-------7-----------|
|---5---5---5---5---5---5---7---7---7---7---7---7---7---7---------|
|-5-------5-------5-------7-------7-------7-------7---------------|

Ending:
the ending is slightly different
e|--------------------------------------|
B|--------------------------------------|
G|--------------------------------------|
D|--------------------------------------|
A|-5-5-5-5-5---5-5-5-5-5-5-5-5----------|
D|-0-0-0-0-0---0-0-0-0-0-0-0-0----------|
X4 not 3 with the little bit at the end!

Intro/riff 1
verse 1 (no guitars!)
riff 1
riff 2
chorus
riff 1
Interlude/bridge
chorus
ending riff!

Thanks for looking at this tab, i'm 99.999999% positive its accurate!!!!! danke schoen ja!:)
Tap to rate this tab
# A B C D E F G H I J K L M N O P Q R S T U V W X Y Z