Song name
# A B C D E F G H I J K L M N O P Q R S T U V W X Y Z

Ramones - Durango 95 tab

Ramones:Durango 95

-----------------------|
-----------------------|
-10-10-10-10-----------|   x4
-10-10-10-10---10--8---|
-8--8--8--8----10--8---|
---------------8---6---|


-----------------------|
-----------------------|
----10-----------------|   x4
-8--10--10-10-10-10-10-|
-8--8---10-10-10-10-10-|
-6------8--8--8--8--8--|
Tap to rate this tab
# A B C D E F G H I J K L M N O P Q R S T U V W X Y Z