Song name
# A B C D E F G H I J K L M N O P Q R S T U V W X Y Z

Rancid - Out Of Control tab

Artist: Rancid
Song: Out of control (Need for speed underground OST)
Tuning: Standard (EADGBe)
Tabber: Dan Fallows (Sick of you)
Date: 23rd January 2007

Intro
e|--------------------|--------------|
B|--------------------|--------------|
G|------------6--5----|--5--------6--| You'll know how the strumming goes
D|-10\--3--6--6--5-0--|--5--3--6--6--| repeat first part until ''LETS GO!''
A|-10\--3--6--4--3-0--|--3--3--6--4--|
E|--9\--1--4----------|-----1--4-----|

In the Verse theres some feedback but i cant really tell what it is
i'm guessing it's maybe a barre chord, but it sounds fine with this
power chord, if anyone knows how to play Miss Murder by AFI you'll
know how to get that feedback harmonic thing going.  Just basically
strum fast but at a even pace.

Feedback harmonic over palm muted verse, play either or.
e|--------|
B|--------|
G|--5(h)--|
D|--5(h)--|
A|--3(h)--|
E|--------|

Verse
e|--------------|
B|--------------|
G|--5--------6--| You'll know how the strumming goes
D|--5--3--6--6--|
A|--3--3--6--4--|
E|-----1--4-----|
    x  x  x  x

Descending part after Verse
e|------------|
B|------------|
G|------------|
D|--10--9--5--|
A|--10--9--5--|
E|---9--7--3--|

Then it swtiches to the feedback part again

Feedback harmonic
e|--------|
B|--------|
G|--5(h)--|
D|--5(h)--|
A|--3(h)--|
E|--------|

Verse
e|--------------|
B|--------------|
G|--5--------6--| You'll know how the strumming goes
D|--5--3--6--6--|
A|--3--3--6--4--|
E|-----1--4-----|
    x  x  x  x

Variation of descending part ''Stay out of control...''
e|---------|
B|---------|
G|---------| Repeat as needed
D|--6--10--|
A|--6--10--|
E|--4---9--|

''we're out of control...''
e|--------|
B|--------|
G|--------|
D|--6--5--| 
A|--6--5--|
E|--4--3--|

Then go crazy with the feedback part
e|--------|
B|--------|
G|--5(h)--|
D|--5(h)--|
A|--3(h)--|
E|--------|

Second intro riff again
e|--------------|
B|--------------|
G|--5--------6--| You'll know how the strumming goes
D|--5--3--6--6--|
A|--3--3--6--4--|
E|-----1--4-----|
   
Feedback Harmoinc, again your choice to play it over the top
e|--------|
B|--------|
G|--5(h)--|
D|--5(h)--|
A|--3(h)--|
E|--------|

Verse
e|--------------|
B|--------------|
G|--5--------6--| You'll know how the strumming goes
D|--5--3--6--6--|
A|--3--3--6--4--|
E|-----1--4-----|
    x  x  x  x

Descending part after Verse
e|------------|
B|------------|
G|------------|
D|--10--9--5--|
A|--10--9--5--|
E|---9--7--3--|

Feedback Harmoinc, again your choice to play it over the top
e|--------|
B|--------|
G|--5(h)--|
D|--5(h)--|
A|--3(h)--|
E|--------|

Verse (palm muted)
e|--------------|
B|--------------|
G|--5--------6--| You'll know how the strumming goes
D|--5--3--6--6--|
A|--3--3--6--4--|
E|-----1--4-----|
    x  x  x  x

Variation of descending part ''Stay out of control''
e|---------|
B|---------|
G|---------| Repeat as needed
D|--6--10--|
A|--6--10--|
E|--4---9--|

''we're out of control...we're out of control..''
e|--------|
B|--------|
G|--------|
D|--6--5--| 
A|--6--5--|
E|--4--3--|

Then go crazy with the feedback part
e|--------|
B|--------|
G|--5(h)--|
D|--5(h)--|
A|--3(h)--|
E|--------|

Second Intro riff again, becomes the ending riff too
e|--------------|
B|--------------|
G|--5--------6--| You'll know how the strumming goes
D|--5--3--6--6--|
A|--3--3--6--4--|
E|-----1--4-----|

That's basically it, great song.  easy too.
Tap to rate this tab
# A B C D E F G H I J K L M N O P Q R S T U V W X Y Z