Song name
# A B C D E F G H I J K L M N O P Q R S T U V W X Y Z

Rancid - Nihilism tab

Help us improve GuitareTab! Take a short survey!
Tabbed by: Eric
Email: voicheckisgod@yahoo.com

Tuning: Standard

e|----------------------------------------------------------------------------|
B|----------------------------------------------------------------------------|
G|----------------------------------------------------------------------------|
D|--------9-9--5-5--7-7-------------------------------------------------------|
A|--------9-9--5-5--7-7---(x4)------------------------------------------------|
E|--------7-7--3-3--5-5-------------------------------------------------------|

Verse 1
     G          Cadd9
e|---3------------3----------------------------------------------------------|
B|---3------------3----------------------------------------------------------|
G|---0------------0----------------------------------------------------------|
D|---0------------2----------(x4)--------------------------------------------|
A|---2------------3----------------------------------------------------------|
E|---3-----------------------------------------------------------------------|

Verse 2
e|--------------------------------------------------------------------------|
B|--------------------------------------------------------------------------|
G|------------5-5-5-5---------5-5-5-5---------------------------------------|
D|---3-3-3-3--5-5-5-5-5-5-5-5-5-5-5-5--(x4,+ pm 4---------------------------|
A|---3-3-3-3--3-3-3-3-5-5-5-5-3-3-3-3---------------------------------------|
E|---1-1-1-1----------3-3-3-3-----------------------------------------------|

Chorus - Guitar 1
e|----------------------------------------------------------------------------|
B|----------------------------------------------------------------------------|
G|-------9-9-9-8-7-7----------------------------------------------------------|
D|-------9-9-9-8-7-7----------------------------------------------------------|
A|-------7-7-7-6-5-7----------------------------------------------------------|
E|----------------------------------------------------------------------------|

Chorus Guitar 2
e|--------------------------------------------------------------------------|
B|-----------8--------------------------------------------------------------|
G|-----4-7/9----------------------------------------------------------------|
D|--------------------------------------------------------------------------|
A|--------------------------------------------------------------------------|
E|--------------------------------------------------------------------------|

Bridge
e|--------------------------------------------------------------------------|
B|---4----------------------------------------------------------------------|
G|---4----------------------------------------------------------------------|
D|---2-/Pick-Slide----------------------------------------------------------|
A|--------------------------------------------------------------------------|
E|--------------------------------------------------------------------------|


Order:
Intro
Verse 1
Verse 2
Chorus
Verse 1
Verse 2
Verse 1 (Varies Rhythm)
Verse 2 (Varies Rhythm)
Bridge
Outro (Intro Repeated)

| /  slide up
| \  slide down
| h  hammer-on
| p  pull-off
| ~  vibrato
| +  harmonic
| x  Mute note
Related for Nihilism tab