Song name
# A B C D E F G H I J K L M N O P Q R S T U V W X Y Z

Rebelution - Safe And Sound tab

no offense to the other guys that tabbed this song (they were just a little off), but i 
this is the correct version.  enjoy!

intro/chorus:

e 11--14--12--12-11----------------------11--12------11--------11--14--12---|
B 12----------------14-12-11---11-12-14----------14------12----12-----------|
G --------------------------------------------------------------------------|
D --------------------------------------------------------------------------|
A --------------------------------------------------------------------------|
E --------------------------------------------------------------------------|

e 12 11----------------------11---------------------------------------------|
B ------14-12-11---11-12-14--12---14---12-----------------------------------|
G --------------------------------------------------------------------------|
D --------------------------------------------------------------------------|
A --------------------------------------------------------------------------|
E --------------------------------------------------------------------------|


chords used on intro/chorus:

e --------------------------------------------------------------------------|
B --------------------------------------------------------------------------|
G --------------------------------------------------------------------------|
D ------6-----------4--3----------------------------------------------------|
A 6-----4-----4-----2--1----------------------------------------------------|
E 4-----------2-------------------------------------------------------------|

verse:
e --------------------------------------------------------------------------|
B --------------------------------------------------------------------------|
G --------------------------------------------------------------------------|
D ------6--8----------------------------------------------------------------|
A 6-----4--6----------------------------------------------------------------|
E 4-------------------------------------------------------------------------|


thats it :)
Tap to rate this tab
 
# A B C D E F G H I J K L M N O P Q R S T U V W X Y Z