Song name
# A B C D E F G H I J K L M N O P Q R S T U V W X Y Z

Rebelution - Feeling Alright tab

Title: Feeling Alright
Artist: Rebelution
Album: Courage to Grow

Tabbed by Schlongdonger

The acoustic part is just how I play it, I think I'm missing a
few extra notes that are in the actual song.  Otherwise I think
it's pretty accurate.

  ____ Guitar One (Acoustic) ____

For the intro play all of this twice except what's noted.  It
comes back later, but just listen to the song to figure out the
variations.

e|-----------------0h2p0--------2-5-3---|
B|-------0-1--0---------3-------3-3-3---|
G|---0h2-----------------2--------------|
D|---------------0----------------------|
A|---------0---------------2------------|
E|-0----------3----------------------0--|
                   ^Guitar 2 comes in here on second time


                       first time                   second time
e|-------------------||---------------------------||-0h2p0-----|
B|---------0-1--0----||---------------------------||------3----|
G|-----0h2-----------||--2-0-0-0-------0h2p0-0----||-------2---|
D|-----------------0-||--0-0-4-0-0--4-------4-----||-----------|
A|-----------0-------||----------2----------------||-----------|
E|-0-0----------3----||------------------------0--||-----------|


  ____ Guitar Two (Electric) ____

Play progression [1] once, starting where noted above.  After
that just alternate between [2] and [3], which are basically the
same with a small variation at the end.

Guitar Two stops at the keyboard/bass part, then starts up again
with progression [3] after "sympathizin' and realizin'".

Sounds good to upstroke the note then downstroke the muting.


[1]
   D      D      Bm    Bm
e|-10-X---10-X---7-X---7-X--|
B|-10-X---10-X---7-X---7-X--|
G|-11-X---11-X---7-X---7-X--|
D|-12-X---12-X---9-X---9-X--|
A|--------------------------|
E|--------------------------|


[2]
   Em    Em    Am     G      D      D      D      Bm
e|-7-X---7-X---12-X---10-X---10-X---10-X---10-X---7-X--|
B|-8-X---8-X---13-X---12-X---10-X---10-X---10-X---7-X--|
G|-9-X---9-X---14-X---12-X---11-X---11-X---11-X---7-X--|
D|-9-X---9-X---14-X---12-X---12-X---12-X---12-X---9-X--|
A|-----------------------------------------------------|
E|-----------------------------------------------------|


[3]
   Em    Em    Am     G      D      D      Bm    Bm
e|-7-X---7-X---12-X---10-X---10-X---10-X---7-X---7-X--|
B|-8-X---8-X---13-X---12-X---10-X---10-X---7-X---7-X--|
G|-9-X---9-X---14-X---12-X---11-X---11-X---7-X---7-X--|
D|-9-X---9-X---14-X---12-X---12-X---12-X---9-X---9-X--|
A|----------------------------------------------------|
E|----------------------------------------------------|

Happy skankin'
Tap to rate this tab
# A B C D E F G H I J K L M N O P Q R S T U V W X Y Z