Song name
# A B C D E F G H I J K L M N O P Q R S T U V W X Y Z

Red Hot Chili Peppers - Californication tab

Red Hot Chili Peppers
Californication
Tab by John


Intro; First Part Verse

e  -----------------------
b  ------0-1--------------
g  ---------------0-2-----
d  ----2------------------
a  --0----------3---------
E  -----------1-----------


After First Part Verse 

e  ---------------------------------------5-------
b  ------5--------3---------1-------------6-------
g  ---------------------------------------5-------
d  ----5---5---------------------------7----------
a  --3----------5---5-----3---3------5------------
E  -----------3---------1-------------------------


Pre-Chorus


     Am   F7+
e  --0----0----
b  --1----1----
g  --2----2----
d  --2----3----
a  --0----0----
E  ------------

Chorus:

C G D Am


Solo:

e  -----------------------------------------------
b  --10--14--------------10--14-------------------
g  -----------11/13-11------------11/13-11--------
d  -----------------------------------------------
a  -----------------------------------------------
E  -----------------------------------------------

e  -----------------------------------------------
b  -----------------------------------------------
g  --11-11-11-11-------------9-11/13\11--9--------
d  --------------11-11--9-11---------------11-----
a  -----------------------------------------------
E  -----------------------------------------------

e  ----------12-14----------12-14/16-14-14--------
b  --10--14----------10--14-----------------------
g  -----------------------------------------------
d  -----------------------------------------------
a  -----------------------------------------------
E  -----------------------------------------------

e  -17-16-14-12-14-12----12-------12------12------
b  -------------------14---14--14-14--14b----14---
g  -----------------------------------------------
d  -----------------------------------------------
a  -----------------------------------------------
E  -----------------------------------------------

e  --16-14-12----12------------12-----------------
b  -----------14----14--12--------15-14-----------
g  ------------------------14-----------14--------
d  -----------------------------------------------
a  -----------------------------------------------
E  -----------------------------------------------
Tap to rate this tab
 
# A B C D E F G H I J K L M N O P Q R S T U V W X Y Z