Song name
# A B C D E F G H I J K L M N O P Q R S T U V W X Y Z

Refused - Bullet tab

Artist: Refused
Song: "Bullet"
Album: The E.P. Compilation
Label: Epitaph/Burning Heart Records

Standard Tuning: [eADGBE]


[Verse]
-----------------------------------------------------------------------|
----------------------------------------------------------[x3]---------|
-----------------------7-7---------------------------------------------|
-9-9-9-9-9-9-9---7-7---7-7---9-9-9-9-9-9-9-----------------------------|
-9-9-9-9-9-9-9---7-7---5-5---9-9-9-9-9-9-9-----------------------------|
-7-7-7-7-7-7-7---5-5---------7-7-7-7-7-7-7-----------------------------|


[Bridge]
-----------------------------------------------------------------------|
-----------------------------------------------------------------------|
-----------------------------------------------------------------------|
-9-9-9-9-9-9-9---7-7-7-7-7-7-7---5-5-5-5---7-7-7-7---9-9-9-9-9-9-9-----|
-9-9-9-9-9-9-9---7-7-7-7-7-7-7---5-5-5-5---7-7-7-7---9-9-9-9-9-9-9-----|
-7-7-7-7-7-7-7---5-5-5-5-5-5-5---3-3-3-3---5-5-5-5---7-7-7-7-7-7-7-----|


[Verse]
-----------------------------------------------------------------------|
----------------------------------------------------------[x3]---------|
-----------------------7-7---------------------------------------------|
-9-9-9-9-9-9-9---7-7---7-7---9-9-9-9-9-9-9-----------------------------|
-9-9-9-9-9-9-9---7-7---5-5---9-9-9-9-9-9-9-----------------------------|
-7-7-7-7-7-7-7---5-5---------7-7-7-7-7-7-7-----------------------------|


[Bridge]
-----------------------------------------------------------------------|
-----------------------------------------------------------------------|
-----------------------------------------------------------------------|
-9-9-9-9-9-9-9---7-7-7-7-7-7-7---5-5-5-5---7-7-7-7---9-9-9-9-9-9-9-----|
-9-9-9-9-9-9-9---7-7-7-7-7-7-7---5-5-5-5---7-7-7-7---9-9-9-9-9-9-9-----|
-7-7-7-7-7-7-7---5-5-5-5-5-5-5---3-3-3-3---5-5-5-5---7-7-7-7-7-7-7-----|


[Chorus]
-----------------------------------------------------------------------|
-9-9-9-9-------------9-9-9-9---------------[x8]------------------------|
-9-9-9-9---9-9-9-9---9-9-9-9---9-9-9-9---------------------------------|
-7-7-7-7---9-9-9-9---7-7-7-7---9-9-9-9---------------------------------|
-----------7-7-7-7-------------7-7-7-7---------------------------------|

[Outro]                               Third Time Through, Play:
------------------------------------|----------------------------|-----|
-----------------------------[x2]---|----------------------------|-----|
-------7-7--------------------------|--------7-7-----------------|-----|
-7-7---7-7---9-9-9-9-9-9-9----------|--7-7---7-7---9-9-9-9-------|-----|
-7-7---5-5---9-9-9-9-9-9-9----------|--7-7---5-5---9-9-9-9-------|-----|
-5-5---------7-7-7-7-7-7-7----------|--5-5---------7-7-7-7-------|-----|
                                                   ^ ^ ^ ^
                                               *short and fast*


This is an old Refused song, originally released on the "Children In Heat" Compilation, 
and then released again on "The E.P. Compilation" in 1997. Straight up punk, from some 
the best at it. Enjoy.
Tap to rate this tab
# A B C D E F G H I J K L M N O P Q R S T U V W X Y Z