Song name
# A B C D E F G H I J K L M N O P Q R S T U V W X Y Z

Reuben - Our Song tab

Artist/Band - Reuben
Album - Racecar Is Racecar Backwards
Song - Our Song


Tuning: C# G# C# F# Bb D#

Key:
x = Mute
/ = Slide up
~ = Let it ring


Intro/Verse 1:
D#]---------------------------------------------|
Bb]---------------------------------------------|
F#]---------------------------------------------|
C#]--0-0-1-0-3--x-x--x-x---0-0-1-0-3--x-x--x-x--|
G#]--0-0-1-0-3--x-x--x-x---0-0-1-0-3--x-x--x-x--|
C#]--0-0-1-0-3--x-x--x-x---0-0-1-0-3--x-x--x-x--|

D#]---------------------------------------------------------|
Bb]---------------------------------------------------------|
F#]---------------------------------------------------------|
C#]--0-0-1-0-3--x-x--x-x---0-0-1-0-3--x-x--x-x-x-x-x-x-x-x--|
G#]--0-0-1-0-3--x-x--x-x---0-0-1-0-3--x-x--x-x-x-x-x-x-x-x--|
C#]--0-0-1-0-3--x-x--x-x---0-0-1-0-3--x-x--x-x-x-x-x-x-x-x--|

D#]---------------------------------------------|
Bb]---------------------------------------------|
F#]---------------------------------------------|
C#]-------------x-x--x-x--------------x-x--x-x--|
G#]-------------x-x--x-x--------------x-x--x-x--|
C#]--0-0-1-0-3--x-x--x-x---0-0-1-0-3--x-x--x-x--|

D#]-------------------------------------------------------|
Bb]-------------------------------------------------------|
F#]--------------------------------5-5-5-5-5-5-5-5-5-5-5--|
C#]-------------x-x--x-x-----------3-3-3-3-3-3-3-3-3-3-3--|
G#]-------------x-x--x-x-----------3-3-3-3-3-3-3-3-3-3-3--|
C#]--0-0-1-0-3--x-x--x-x---0-0-1-0-3-3-3-3-3-3-3-3-3-3-3--|


Chorus:
D#]-----------------------------------|
Bb]-----------------------------------|
F#]--7-7-7-7-7-7-7-7-7-7-7-7-7-7-7-7--|
C#]--x-x-x-x-x-x-x-x-x-x-x-x-x-x-x-x--| x2
G#]--5-5-5-5-5-5-5-5-5-5-5-5-5-5-5-5--|
C#]-----------------------------------|

D#]---------------------------------------------------|
Bb]---------------------------------------------------|
F#]--14-14-14-14-14-14-14-14-15-15-15-15-15-15-15-15--|
C#]---x--x--x--x--x--x--x--x--x--x--x--x--x--x--x--x--|
G#]--12-12-12-12-12-12-12-12-13-13-13-13-13-13-13-13--|
C#]---------------------------------------------------|

D#]---------------------------|
Bb]---------------------------|
F#]--7-7-7-7-7-7-7-7-7-7-7-7--|
C#]--x-x-x-x-x-x-x-x-x-x-x-x--|
G#]--5-5-5-5-5-5-5-5-5-5-5-5--|
C#]---------------------------|

D#]--------------------------------------|
Bb]--------------------------------------|
F#]--10--10-10-10-10-10------------------|
C#]--10--10-10-10-10-10---5-5-5-5-0-3-5--| x3
G#]---8---8--8--8--8--8---5-5-5-5-0-3-5--|
C#]---8---8--8--8--8--8---5-5-5-5-0-3-5--|


Post-Chorus fill:
D#]---------------------|
Bb]---------------------|
F#]---------------------|
C#]----------------1-0--|
G#]----------------1-0--|
C#]--1-0-0-0-1-0-0-1-0--|


Verse 2:
D#]---------------------------------------------|
Bb]---------------------------------------------|
F#]---------------------------------------------|
C#]--0-0-1-0-3--x-x--x-x---0-0-1-0-3--x-x--x-x--|
G#]--0-0-1-0-3--x-x--x-x---0-0-1-0-3--x-x--x-x--|
C#]--0-0-1-0-3--x-x--x-x---0-0-1-0-3--x-x--x-x--|

D#]-------------0~-------------------------------------|
Bb]-------------0~-------------------------------------|
F#]-------------0~-------------------------------------|
C#]--0-0-1-0-3--0~----0-0-1-0-3--x-x--x-x-x-x-x-x-x-x--|
G#]--0-0-1-0-3--------0-0-1-0-3--x-x--x-x-x-x-x-x-x-x--|
C#]--0-0-1-0-3--------0-0-1-0-3--x-x--x-x-x-x-x-x-x-x--|

D#]---------------------------------------------|
Bb]---------------------------------------------|
F#]---------------------------------------------|
C#]-------------x-x--x-x--------------x-x--x-x--|
G#]-------------x-x--x-x--------------x-x--x-x--|
C#]--0-0-1-0-3--x-x--x-x---0-0-1-0-3--x-x--x-x--|

D#]-------------------------------------------------------|
Bb]-------------------------------------------------------|
F#]--------------------------------5-5-5-5-5-5-5-5-5-5-5--|
C#]-------------x-x--x-x-----------3-3-3-3-3-3-3-3-3-3-3--|
G#]-------------x-x--x-x-----------3-3-3-3-3-3-3-3-3-3-3--|
C#]--0-0-1-0-3--x-x--x-x---0-0-1-0-3-3-3-3-3-3-3-3-3-3-3--|


Chorus:
D#]-----------------------------------------------------------|
Bb]-----------------------------------------------------------|
F#]--10~-----12~-----10~-----12~-----x--12-x-x-12-------------|
C#]--10~-----12~-----10~-----12~-----x--12-x-x-12-------------|
G#]---8~-----10~------8~-----10~-----x--10-x-x-10/12-12-12----|
C#]---8~-----10~------8~-----10~-----x--10-x-x-10/12-12-12----|

D#]-----------------------------------------|
Bb]-----------------------------------------|
F#]-----------------------------------------|
C#]--12-12-x-12-12-12-12-12-x-12-x-x-12-12--|
G#]--10-10-x-10-10-10-10-10-x-12-x-x-12-12--|
C#]--10-10-x-10-10-10-10-10-x-10-x-x-10-10--|

D#]--------------------------------------------|
Bb]--------------------------------------------|
F#]--------------------------------------------|
C#]--12-14-14-x-14-14-14-14-14-x-14-x-x-14-14--|
G#]--10-12-12-x-12-12-12-12-12-x-12-x-x-12-12--|
C#]--10-12-12-x-12-12-12-12-12-x-12-x-x-12-12--|


Post-Chorus fill:
D#]-------------------------------------|
Bb]-------------------------------------|
F#]-------------------------------------|
C#]-------------------------------------|
G#]-------------------------------------|
C#]--7~-----6~--3~---1-0-0-0-1-0-0-1-0--|


Breakdown:
D#]---------------------------------------------------|
Bb]---------------------------------------------------|
F#]---------------------------------------------------|
C#]--1-0-0-0-1-0-0-0-1-0-0-0-1-0-0-0------------------| x2
G#]--1-0-0-0-1-0-0-0-1-0-0-0-1-0-0-0------------------|
C#]--1-0-0-0-1-0-0-0-1-0-0-0-1-0-0-0-3-3-3-4-4-4-7-7--|

D#]---------------------------------------------------------|
Bb]---------------------------------------------------------|
F#]---------------------------------------------------------|
C#]--7-7--7--7-7-7--7--7-7-7--7--7-7-7--7--7-7-8-8-8-7-7-0--|
G#]--7-7--7--7-7-7--7--7-7-7--7--7-7-7--7--7-7-8-8-8-7-7-0--|
C#]--7-7--7--7-7-7--7--7-7-7--7--7-7-7--7--7-7-8-8-8-7-7-0--|

D#]------------------------------------------0~--|
Bb]------------------------------------------0~--|
F#]------------------------------------------0~--|
C#]--1-0-0-0-1-0-0-0-1-0-0-0-1-0-0-0-1-3-1-0-0~--|
G#]--1-0-0-0-1-0-0-0-1-0-0-0-1-0-0-0-1-3-1-0-0~--|
C#]--1-0-0-0-1-0-0-0-1-0-0-0-1-0-0-0-1-3-1-0-0~--|
Tap to rate this tab
# A B C D E F G H I J K L M N O P Q R S T U V W X Y Z