Rise Against - Survivor Guilt tab

Contact me at tobias[dot]m[at]onlinehome[dot]de (English&German xD)
Songname: Survivor Guilt
Artist: Rise Against
Album: Endgame
Release-Date: 14th Mai 2011
Tuning: Half-Setp-Down [Eb, Ab, Db, Gb, Hb, eb]

Key:
/ - Slide Up
~ - Let ring
|o- Repeat-Start
o|- Repeat-End (When there is no number play 2 times) (when
    threre is no Repeat-start, repeat the whole line)
:.- Palm-Muted
(?)-Optional


Chords above the tabs give an example of how to put your fingers.
A ! in the Chords-Line means, that there is no chord that could
be played at this time.


>=== Intro ===<  // Without distortion  

     Cm             A              B#sus4            B#maj7   B#sus4
eb|-------5-----------------------------------------------------------------|
Bb|----------6------------6-------------------------------------------------|
Gb|-----7------7------------7--------------10--10----9--------10------------|
Db|---7----------7------8-----8---------10--------10----10-------10----10---|
Ab|-5-----------------8---------8----10--------------------10-------10------|
Eb|-----------------6--------------8----------------------------------------|


    Cm              A                D#(m)   (G)
eb|-------5-----------------------------------------------8-----------------|
Bb|----------6------------6-------------------------------------------------|
Gb|-----7------7------------7--------9-9-9-9--9-9--8/9-10-------------------|
Db|---7----------7------8-----8------9-9-9-9--9-9---------------------------|
Ab|-5-----------------8---------8----7-7-7-7--7-7---------------------------|
Eb|-----------------6-------------------------------------------------------|
                                     Please find the timing yourself ;)


     Cm             A              B#sus4            B#maj7   B#sus4
eb|-------5-----------------------------------------------------------------|
Bb|----------6------------6-----------------------------------------------o-|
Gb|-----7------7------------7--------------10--10----9--------10------------|
Db|---7----------7------8-----8---------10--------10----10-------10----10---|
Ab|-5-----------------8---------8----10--------------------10-------10----o-|
Eb|-----------------6--------------8----------------------------------------|


>=== PreVerse ===< // with distortion
Now Guitar 2 plays in the bakground:

    D#(m)               C#(m)    D#
eb|-------------------------------------------------------------------------|
Bb|-------------------------------------------------------------------------|
Gb|-------------------------------------------------------------------------|
Db|-9-9-9-9-9-9-9-9-9-9-7-7-7-7--9-9--9-9--9-9------------------------------|
Ab|-9-9-9-9-9-9-9-9-9-9-7-7-7-7--9-9--9-9--9-9------------------------------|
Eb|-7-7-7-7-7-7-7-7-7-7-5-5-5-5--7-7--7-7--7-7------------------------------|
    :.................. :......


>=== Verse ===<

   !                                             Gb
eb|------------------------------------------|------------------------------|
Bb|-o--10-10-10-10-10-10-11-11-11-11-11-11-o-|x4----------------------------|
Gb|----x--x--x--x--x--x--x--x--x--x--x--x----|------------------------------|
Db|----7--7--7--7--7--7--8--8--8--8--8--8----|---5~-------------------------|
Ab|-o--------------------------------------o-|x4-5~-------------------------|
Eb|------------------------------------------|---3~-------------------------|


   !                                             Gb
eb|------------------------------------------|------------------------------|
Bb|-o--10-10-10-10-10-10-11-11-11-11-11-11-o-|x2----------------------------|
Gb|----x--x--x--x--x--x--x--x--x--x--x--x----|------------------------------|
Db|----7--7--7--7--7--7--8--8--8--8--8--8----|---5~-------------------------|
Ab|-o--------------------------------------o-|x2-5~-------------------------|
Eb|------------------------------------------|---3~-------------------------|

                                                >=== PreChorus ===<
   !                                             Gb                        A
eb|------------------------------------------|------------------------------|
Bb|-o--10-10-10-10-10-10-11-11-11-11-11-11-o-|x2----------------------------|
Gb|----x--x--x--x--x--x--x--x--x--x--x--x----|------------------------------|
Db|----7--7--7--7--7--7--8--8--8--8--8--8----|---5~----------------------8--|
Ab|-o--------------------------------------o-|x2-5~----------------------8--|
Eb|------------------------------------------|---3~----------------------6--|
			                          I gave some, some gave all


    A             B
eb|-------------------------------------------------------------------------|
Bb|-------------------------------------------------------------------------|
Gb|-------------------------------------------------------------------------|
Db|-8-8-8-8-8-8-8-10-10-10-10-10-10-10-10-----------------------------------|
Ab|-8-8-8-8-8-8-8-10-10-10-10-10-10-10-10-----------------------------------|
Eb|-6-6-6-6-6-6-6-8--8--8--8--8--8--8--8------------------------------------|


>=== Chorus ===<

    C#m           A               Bbm             Gbm
eb|-------------------------------------------------------------------------|
Bb|-------------------------------------------------------------------------|
Gb|-7-7-7-7-7-7-7-----------------5-5-5-5-5-5-5-5---------------------------|
Db|-7-7-7-7-7-7-7-8-8-8-8-8-8-8-8-5-5-5-5-5-5-5-5-5-5-5-5-5-5-5-5-----------|
Ab|-5-5-5-5-5-5-5-8-8-8-8-8-8-8-8-3-3-3-3-3-3-3-3-5-5-5-5-5-5-5-5-----------|
Eb|---------------6-6-6-6-6-6-6-6-----------------3-3-3-3-3-3-3-3-----------|



    C#m           A               Bbm                     !
eb|-------------------------------------------------------------------------|
Bb|-------------------------------------------------------------------------|
Gb|-7-7-7-7-7-7-7-----------------5-5-5-5-5-5-5-5-5-5-5-5-7-5---5-----------|
Db|-7-7-7-7-7-7-7-8-8-8-8-8-8-8-8-5-5-5-5-5-5-5-5-5-5-5-5-x-x---x-----------|
Ab|-5-5-5-5-5-5-5-8-8-8-8-8-8-8-8-3-3-3-3-3-3-3-3-3-3-3-3-5-3---3-----------|
Eb|---------------6-6-6-6-6-6-6-6-------------------------------------------|


    C#m           A               Bbm             Gbm
eb|-------------------------------------------------------------------------|
Bb|-------------------------------------------------------------------------|
Gb|-7-7-7-7-7-7-7-----------------5-5-5-5-5-5-5-5---------------------------|
Db|-7-7-7-7-7-7-7-8-8-8-8-8-8-8-8-5-5-5-5-5-5-5-5-5-5-5-5-5-5-5-5-----------|
Ab|-5-5-5-5-5-5-5-8-8-8-8-8-8-8-8-3-3-3-3-3-3-3-3-5-5-5-5-5-5-5-5-----------|
Eb|---------------6-6-6-6-6-6-6-6-----------------3-3-3-3-3-3-3-3-----------|


    C#m   D#m   !
eb|-------------------------------------------------------------------------|
Bb|-------------------------------------------------------------------------|
Gb|-7~---/9~----7-----------------------------------------------------------|
Db|-7~---/9~----x-----------------------------------------------------------|
Ab|-5~---/7~----5-----------------------------------------------------------|
Eb|-------------------------------------------------------------------------|

Guitar 2 plays in here again, this time with an exaggerated tremolo-effekt

    D#(m)               C#(m)    D#
eb|-------------------------------------------------------------------------|
Bb|-------------------------------------------------------------------------|
Gb|-------------------------------------------------------------------------|
Db|-9-9-9-9-9-9-9-9-9-9-7-7-7-7--9-9--9-9--9-9------------------------------|
Ab|-9-9-9-9-9-9-9-9-9-9-7-7-7-7--9-9--9-9--9-9------------------------------|
Eb|-7-7-7-7-7-7-7-7-7-7-5-5-5-5--7-7--7-7--7-7------------------------------|
    :.................. :......


>=== Verse ===<

   !                                             Gb
eb|------------------------------------------|------------------------------|
Bb|-o--10-10-10-10-10-10-11-11-11-11-11-11-o-|x4----------------------------|
Gb|----x--x--x--x--x--x--x--x--x--x--x--x----|------------------------------|
Db|----7--7--7--7--7--7--8--8--8--8--8--8----|---5~-------------------------|
Ab|-o--------------------------------------o-|x4-5~-------------------------|
Eb|------------------------------------------|---3~-------------------------|


   !                                             Gb
eb|------------------------------------------|------------------------------|
Bb|-o--10-10-10-10-10-10-11-11-11-11-11-11-o-|x2----------------------------|
Gb|----x--x--x--x--x--x--x--x--x--x--x--x----|------------------------------|
Db|----7--7--7--7--7--7--8--8--8--8--8--8----|---5~-------------------------|
Ab|-o--------------------------------------o-|x2-5~-------------------------|
Eb|------------------------------------------|---3~-------------------------|


                                                >=== PreChorus ===<
   !                                             Gb  A
eb|------------------------------------------|------------------------------|
Bb|-o--10-10-10-10-10-10-11-11-11-11-11-11-o-|x2----------------------------|
Gb|----x--x--x--x--x--x--x--x--x--x--x--x----|------------------------------|
Db|----7--7--7--7--7--7--8--8--8--8--8--8----|---5~--8~---------------------|
Ab|-o--------------------------------------o-|x2-5~--8~---------------------|
Eb|------------------------------------------|---3~--6~---------------------|
			                            

    A             B
eb|-------------------------------------------------------------------------|
Bb|-------------------------------------------------------------------------|
Gb|-------------------------------------------------------------------------|
Db|-8-8-8-8-8-8-8-10-10-10-10-10-10-10-10-----------------------------------|
Ab|-8-8-8-8-8-8-8-10-10-10-10-10-10-10-10-----------------------------------|
Eb|-6-6-6-6-6-6-6-8--8--8--8--8--8--8--8------------------------------------|


>=== Chorus ===<

    C#m           A               Bbm             Gbm
eb|-------------------------------------------------------------------------|
Bb|-------------------------------------------------------------------------|
Gb|-7-7-7-7-7-7-7-----------------5-5-5-5-5-5-5-5---------------------------|
Db|-7-7-7-7-7-7-7-8-8-8-8-8-8-8-8-5-5-5-5-5-5-5-5-5-5-5-5-5-5-5-5-----------|
Ab|-5-5-5-5-5-5-5-8-8-8-8-8-8-8-8-3-3-3-3-3-3-3-3-5-5-5-5-5-5-5-5-----------|
Eb|---------------6-6-6-6-6-6-6-6-----------------3-3-3-3-3-3-3-3-----------|



    C#m           A               Bbm                     !
eb|-------------------------------------------------------------------------|
Bb|-------------------------------------------------------------------------|
Gb|-7-7-7-7-7-7-7-----------------5-5-5-5-5-5-5-5-5-5-5-5-7-5---5-----------|
Db|-7-7-7-7-7-7-7-8-8-8-8-8-8-8-8-5-5-5-5-5-5-5-5-5-5-5-5-x-x---x-----------|
Ab|-5-5-5-5-5-5-5-8-8-8-8-8-8-8-8-3-3-3-3-3-3-3-3-3-3-3-3-5-3---3-----------|
Eb|---------------6-6-6-6-6-6-6-6-------------------------------------------|


    C#m           A               Bbm             Gbm
eb|-------------------------------------------------------------------------|
Bb|-------------------------------------------------------------------------|
Gb|-7-7-7-7-7-7-7-----------------5-5-5-5-5-5-5-5---------------------------|
Db|-7-7-7-7-7-7-7-8-8-8-8-8-8-8-8-5-5-5-5-5-5-5-5-5-5-5-5-5-5-5-5-----------|
Ab|-5-5-5-5-5-5-5-8-8-8-8-8-8-8-8-3-3-3-3-3-3-3-3-5-5-5-5-5-5-5-5-----------|
Eb|---------------6-6-6-6-6-6-6-6-----------------3-3-3-3-3-3-3-3-----------|

    C#m   D#m   !
eb|-------------------------------------------------------------------------|
Bb|-------------------------------------------------------------------------|
Gb|-7~---/9~----10-8--------------------------------------------------------|
Db|-7~---/9~----10-8--------------------------------------------------------|
Ab|-5~---/7~----8--6--------------------------------------------------------|
Eb|-------------------------------------------------------------------------|


>=== Break ===<

  |Guitar 1
  |!                                                Em        Bb      
eb|-------------------------------------------------------------------------|
Bb|-------------------------------------------------------------------------|
Gb|-7--7--7--7---------------7--7--7--7-----------------------5--5-5-5------|
Db|-7--7--7--7---------------7--7--7--7-------------3--3-3-3--5--5-5-5------|
Ab|-5--5--5--5---------------5--5--5--5-------------3--3-3-3--3--3-3-3------|
Eb|(5)(5)(5)(5)-------------(5)(5)(5)(5)------------1--1-1-1----------------|
  |
  |Guitar 2
eb|-------------------------------------------------------------------------|
Bb|-------------------------------------------------------------------------|
Gb|-------------------------------------------------------------------------|
Db|-------------------------------------------------------------------------|
Ab|-------------5-5-5-5-5-5-------------5-5-5-5-5-5-------------------------|
Eb|-------------------------------------------------------------------------|
                ...........             ...........

Guitar 1

    Gb        G#        !                       (E  C Bb  Bb   F# E  D E  D  )
eb|-------------------------------------------------------------------------|
Bb|-------------------------------------------------------------------------|
Gb|---------------------7--7--7--7---11-7--5--7--10-7-5-7-5-10-12-10-8-10-8-|
Db|-5--5-5-5--7--7-7-7--7--7--7--7---11-7--5--7--x--x-x-x-x-x--x--x--x-x--x-|
Ab|-5--5-5-5--7--7-7-7--5--5--5--5---9--5--3--5--8--5-3-5-3-8--10-8--6-8--6-|
Eb|-3--3-3-3--5--5-5-5-(5)(5)(5)(5)-(9)(5)(3)(5)----------------------------|
                                                (       C   E                )

>=== Bridge ===<

      C                                Em
eb|-------------------------------------------------------------------------|
Bb|-o-----------------------------------------------------------------------|
Gb|---7-7-7-7-7-7-7-7-7-7-7-7-7-7-7-7---------------------------------------|
Db|---7-7-7-7-7-7-7-7-7-7-7-7-7-7-7-7--3-3-3-3-3-3-3-3-3-3-3-3-3-3-3-3-3----|
Ab|-o-5-5-5-5-5-5-5-5-5-5-5-5-5-5-5-5--3-3-3-3-3-3-3-3-3-3-3-3-3-3-3-3-3----|
Eb|------------------------------------1-1-1-1-1-1-1-1-1-1-1-1-1-1-1-1-1----|
    16x                      result. One thing that...


    Gb       Ab             F   F#  Ab  B    C#   Em
eb|--------------------|----------------------------------------------------|
Bb|-------------------o|x2--------------------------------------------------|
Gb|--------------------|----------------------------------------------------|
Db|-5-5-5-5--7-7-7-7---|----4~--5~--7~--10~--12~----------------------------|
Ab|-5-5-5-5--7-7-7-7--o|x2--4~--5~--7~--10~--12~--2-2-2-2-2-2-2-2-----------|
Eb|-3-3-3-3--5-5-5-5---|----2~--3~--5~---8~--10~--0-0-0-0-0-0-0-0-----------|

// Without distortion here
// its the same as the intro, only a bit faster.

     Cm             A              B#sus4            B#maj7   B#sus4
eb|-------5-----------------------------------------------------------------|
Bb|----------6------------6-----------------------------------------------o-|x4
Gb|-----7------7------------7--------------10--10----9--------10------------|
Db|---7----------7------8-----8---------10--------10----10-------10----10---|
Ab|-5-----------------8---------8----10--------------------10-------10----o-|x4
Eb|-----------------6--------------8----------------------------------------|

// ends with "to die on your knees."

>=== Chorus ===<

    C#m           A               Bbm             Gbm
eb|-------------------------------------------------------------------------|
Bb|-------------------------------------------------------------------------|
Gb|-7-7-7-7-7-7-7-----------------5-5-5-5-5-5-5-5---------------------------|
Db|-7-7-7-7-7-7-7-8-8-8-8-8-8-8-8-5-5-5-5-5-5-5-5-5-5-5-5-5-5-5-5-----------|
Ab|-5-5-5-5-5-5-5-8-8-8-8-8-8-8-8-3-3-3-3-3-3-3-3-5-5-5-5-5-5-5-5-----------|
Eb|---------------6-6-6-6-6-6-6-6-----------------3-3-3-3-3-3-3-3-----------|



    C#m           A               Bbm                     !
eb|-------------------------------------------------------------------------|
Bb|-------------------------------------------------------------------------|
Gb|-7-7-7-7-7-7-7-----------------5-5-5-5-5-5-5-5-5-5-5-5-7-5---5-----------|
Db|-7-7-7-7-7-7-7-8-8-8-8-8-8-8-8-5-5-5-5-5-5-5-5-5-5-5-5-x-x---x-----------|
Ab|-5-5-5-5-5-5-5-8-8-8-8-8-8-8-8-3-3-3-3-3-3-3-3-3-3-3-3-5-3---3-----------|
Eb|---------------6-6-6-6-6-6-6-6-------------------------------------------|


    C#m           A               Bbm             Gbm
eb|-------------------------------------------------------------------------|
Bb|-------------------------------------------------------------------------|
Gb|-7-7-7-7-7-7-7-----------------5-5-5-5-5-5-5-5---------------------------|
Db|-7-7-7-7-7-7-7-8-8-8-8-8-8-8-8-5-5-5-5-5-5-5-5-5-5-5-5-5-5-5-5-----------|
Ab|-5-5-5-5-5-5-5-8-8-8-8-8-8-8-8-3-3-3-3-3-3-3-3-5-5-5-5-5-5-5-5-----------|
Eb|---------------6-6-6-6-6-6-6-6-----------------3-3-3-3-3-3-3-3-----------|

    C#m   D#m  C#m   D#m  !
eb|-------------------------------------------------------------------------|
Bb|-------------------------------------------------------------------------|
Gb|-7~---/9~---7~---/9~---7--7--7--7---7--9--5--7---------------------------|
Db|-7~---/9~---7~---/9~---7--7--7--7---7--9--5--7---------------------------|
Ab|-5~---/7~---5~---/7~---5--5--5--5---5--7--3--5---------------------------|
Eb|----------------------(5)(5)(5)(5)-(5)(7)(3)(5)--------------------------|
Tap to rate this tab
 
# A B C D E F G H I J K L M N O P Q R S T U V W X Y Z