Song name
# A B C D E F G H I J K L M N O P Q R S T U V W X Y Z

Rise Against - Blind tab

----------------------------------------------------------------------------
			     Blind - Rise Against
----------------------------------------------------------------------------
Tabbed by: corvette_cav
Email:corvette_cav@yahoo.com

Tuning:Standard

e|-------------------------------------------------------------------------|
B|-------------------------------------------------------------------------|
G|----7-9-9-7-7---------------------7-9-9-7-7------------------------------|
D|-10------------10-10----------10-------------10-10-----------------------|
A|-------------------------------------------------------------------------|
E|-------------------------------------------------------------------------|

e|-------------------------------------------------------------------------|
B|--------------------8----------------------------------------------------|
G|-----7-9-9-7-7-----------------------------------------------------------|
D|-10-------------10-----10-10---------------------------------------------|
A|------------------------------10-10--------------------------------------|
E|-------------------------------------------------------------------------|

e|-------------------------------------------------------------------------|
B|--------------------8-----------------------------8----------------------|
G|-----7-9-9-7-7---------------------7-9-9-7-7-----------------------------|
D|-10-------------10-------------10-------------10-------------------------|
A|-------------------------------------------------------------------------|
E|-------------------------------------------------------------------------|

e|-------------------------------------------------------------------------|
B|--------------------8----------------------------------------------------|
G|-----7-9-9-7-7----------9-9----------------------------------------------|
D|-10-------------10-----------10-10---------------------------------------|
A|-------------------------------------------------------------------------|
E|-------------------------------------------------------------------------|


************************************

| /   slide up
| \   slide down
| h   hammer-on
| p   pull-off
| ~   vibrato
| +   harmonic
| x   Mute note
| b   Bend
| pb  Pre-bend
| br  Bend release
| pbr Pre-bend release
| brb Bend release bend

************************************
Tap to rate this tab
 
# A B C D E F G H I J K L M N O P Q R S T U V W X Y Z