Song name
# A B C D E F G H I J K L M N O P Q R S T U V W X Y Z

Rise Against - For Fiona tab

Intro
e|-------------------------------------------------------------|
B|------------------7--6--7------------------------------------|
G|-4---4-4-4---4-4--8--8--8-----4444 6666 8888 6666----1-------|
D|-4---4-4-4---4-4--8--8--8----------------------------2---4---|
A|-2---2-2-2---2-2--6--6--6-----6666 6666 4444 4444----2---4---|
E|---------2---2-2-------------------------------------0---2---|


Verse 1
  I Can't even think a words to match......
e|-------------------------------------------------------------|
B|-------------------------------------------------------------|
G|--------------4-4444444444---4-444-333-----4444444-44444-----|
D|--------------2-2222222222---4-444-444--4/66666666-44444-----|
A|-----------------------------4-444-444-----------------------|
E|-------------------------------------------------------------|

   I can only try ...
e|-------------------------------------------------------------|
B|-------------------------------------------------------------|
G|-4-4444444444---4-444-333---4-444444444-----4--3-------------|
D|-2-2222222222---4-444-444---2-222222222-----4--4-------------|
A|----------------4-444-444-------------------4--4-------------|
E|-------------------------------------------------------------|

Verse 2

  If I could praise a smile ....
e|------------------------------------------------------------|
B|------------------------------------------------------------|
G|-------------------------4----------------------------------|
D|-----------2-----4---6---4-------2---4- -2---4--------------|
A|-----------2-----4---6---2-------2---4---2---4--------------|
E|-----------0-----2---4-----------0---2---0---2--------------|

Chorus
  Nothing is the same....
e|------------------------------------------------------------|
B|-------------------------------7--7-------------------------|
G|--------------------4--44-4----8--8-----------------1-------|  x2
D|--------------------4--44-4----8--8----6-6---4-4----2-------|
A|--------------------2--22-2----6--6----6-6---4-4----2-------|
E|---------------------------------------4-4---2-2----0-------|

Verse 3
  And I'm as scared as anybody who...
e|------------------------------------------------------------|
B|------------------------------------------------------------|
G|-11-11-11---11-11-11-11---11-11-11---11-11-11---------------| 
D|--9--9--9----8--8--8--8----9--9--9---9--9--9----------------|
A|--7--7--7----9--9--9--9---11-11-11---9--9--9----------------|
E|------------------------------------------------------------|

e|------------------------------------------------------------|
B|------------------------------------------------------------|
G|-11-11-11---11-11-11-11---11-11-11---11---------------------| 
D|--9--9--9----8--8--8--8----9--9--9----8---------------------|
A|--7--7--7----9--9--9--9----7--7--7----9---------------------|
E|------------------------------------------------------------|


Chorus

Bridge
 
  I'm always
e|------2-------2-------2-------2-------2-------2-------2-------2-----|
B|----0---0---0---0---0---0---0---0---0---0---0---0---0---0---0---0---|
G|--4-------4-------3-------3-------1-------1-------3-------3---------| 
D|--------------------------------------------------------------------|
A|--------------------------------------------------------------------|
E|--------------------------------------------------------------------|

e|------2-------2-------2-------2-------2-------2---2-----------------|
B|----0---0---0---0---0---0---0---0---0---0---0---0-0-----------------|
G|--4-------4-------3-------3-------1-------1-------3-----------------| 
D|--------------------------------------------------------------------|
A|--------------------------------------------------------------------|
E|--------------------------------------------------------------------|
Tap to rate this tab
# A B C D E F G H I J K L M N O P Q R S T U V W X Y Z