Song name
# A B C D E F G H I J K L M N O P Q R S T U V W X Y Z

Rivulets - You Are My Home chords

Highlighted       Show chord diagrams
capo 3rd fret


verse

         am       em       C9
E-----x--0--------0--------0-----------|
B-----0--1--------0--------3-----------|
G-----2--2--------0--------0-----------|
A-----2--2--------2--------2-----------|
D-----0--0--------2--------3-----------|
E-----x--x--------0--------0-----------|


chorus

      em       G       D/F#     D/F#*
E-----0--------3--------2--------x----------|
B-----0--------3--------3--------3----------|
G-----0--------0--------2--------2----------|
A-----2--------0--------0--------0----------|
D-----2--------2--------0--------0----------|
E-----0--------3--------2--------2----------|

play the bass note (F#) with the thumb in the D chord. if you find it hard to play it 
that play the second D chord using the first finger on
the bass string.

      C          G      D/F#
E-----0----------3-------2----------------------------------|
B-----1----------3-------3----------------------------------|
G-----0----0-----0-------2----------------------------------|
A-----2----0h2h0-0-------0----------------------------------|
D-----3----3-----2-------0----------------------------------|
E-----x----x-----3-------2----------------------------------|


its really hard to here what he is singing
here are the lyrics as best as i can transcribe:


waited a year for you, its hard
checking for messages every hour
but you are now aware
how i was wrong, i am sick, i am trying to get well

but you are my home
you are my home
when that it is done
when everything's wrong
you are my home
you are my home

waited a year for you all the time
writing you letters i'll never send
but you are now aware
its so long since i've heard your sweet (temper, ember, timber, tender?!?!?)

you are my home
you are my home
when that it is done
when everything's wrong
you are my home
you are my home


if you can here the lyrics better than i can feel free to
use your own interpretation :p

i know i've left out the little bridge bit
i'll try and have a look at it later

http://www.rivulets.net/
Tap to rate this tab
# A B C D E F G H I J K L M N O P Q R S T U V W X Y Z