Song name
# A B C D E F G H I J K L M N O P Q R S T U V W X Y Z

Rivulets - Shakes tab

tune down half step

this song is actually really easy
its the bass that does most of the work


main

E------------------------------------------------------|
B------------------------------------------------------|
G---------0-----------0-----------0-----------0--------|
D------9-----9-----9-----9-----9-----9-----9-----9-----|
A---7-----------7-----------7-----------7--------------|
E------------------------------------------------------|


E------------------------------------------------------|
B------------------------------------------------------|
G---------0-----------0-----------0-----------0--------|
D------9-----9-----9-----9-----9-----9-----9-----9-----|
A---9-----------9-----------9-----------9*-------------|
E------------------------------------------------------|

9* - play this as 10 about every second time
     listen to the song and you can hear
     where it is appropriate to play


chorus

E------------------------------------------------------|
B------------------------------------------------------|
G---------0-----------0-----------0-----------0--------|
D------9-----9-----9-----9-----9-----9-----9-----9-----|
A---10----------10----------10----------10-------------|
E------------------------------------------------------|

E------------------------------------------------------|
B------------------------------------------------------|
G---------0-----------0-----------0-----------0--------|
D------9-----9-----9-----9-----9-----9-----9-----9-----|
A---9-----------9-----------9-----------9--------------|
E------------------------------------------------------|

once, anchor(anger?) ride
took it on
all despite
watch and see
what it had done
now its something
you don't want

take, take the road
hold tight
don't let go
watch it fall
watch it land
watch it die
watch it stand

take from the night
give it back
run and hide

now at your door
uninvited back for more
with its fingers
in your mouth
the familiar
on your tongue

and its blood
under your skin
its intentions
in your hands

take from the night
give it back
run and hide

take from the night
give it back
run and hide
Tap to rate this tab
# A B C D E F G H I J K L M N O P Q R S T U V W X Y Z