Song name
# A B C D E F G H I J K L M N O P Q R S T U V W X Y Z

Rudimentary Peni - Rotten To The Core tab

-----------------------------------------------------------------------------
			     ROTTEN TO THE CORE - Rudimentary Peni
-----------------------------------------------------------------------------
Tabbed by: Dman
Email: dima_zador@yahoo.com

Tuning: EADGBe

Intro/Verse
e|---------------------------------------------------------------------------|
B|---------------------------------------------------------------------------|
G|-7-7-6-5-5-5-5-5-5--5-5-8--------------------------------------------------|
D|-7-7-6-5-5-5-5-5-5--5-5-8-9-9-9-9-9-9--------------------------------------|
A|-5-5-4-3-3-3-3-3-3--3-3-6-9-9-9-9-9-9--------------------------------------|
E|--------------------------7-7-7-7-7-7--------------------------------------|

Chorus
e|---------------------------------------------------------------------------|
B|---------------------------------------------------------------------------|
G|-10109-8-8-8-8-7-9---------------------------------------------------------|
D|-10109-8-8-8-8-7-9---------------------------------------------------------|
A|-8-8-7-6-6-6-6-5-7---------------------------------------------------------|
E|---------------------------------------------------------------------------|

| /  slide up
| \  slide down
| h  hammer-on
| p  pull-off
| ~  vibrato
| +  harmonic
| x  Mute note
=============================================================================
Tap to rate this tab
 
# A B C D E F G H I J K L M N O P Q R S T U V W X Y Z