Song name
# A B C D E F G H I J K L M N O P Q R S T U V W X Y Z

Rudimentary Peni - The Rain tab

Rudimentary Peni - The Rain
Archaic EP (2004)
Tabbed By ruker
Standard Tuning EADGBE

--------------
Key:
--------------
.   Palm Mute
~   Vibrato
h   Hammer-On
p   Pull-Off
b   Bend
r   Release
/   Slide Up
\   Slide Down
--------------


Riff A (0:01)
||--------------------------------------------------|
||*-------------------------------------------------|
||--6-6-6-6-6-6-7-6-4-4-4-4-4-4-6-4-2-2-2-2-2-2-4-2-|
||--6-6-6-6-6-6-7-6-4-4-4-4-4-4-6-4-2-2-2-2-2-2-4-2-|
||*-4-4-4-4-4-4-5-4-2-2-2-2-2-2-4-2-0-0-0-0-0-0-2-0-|
||--------------------------------------------------|

                                                 6x
|--------------------------------------------------||
|-------------------------------------------------*||
|-------------------------------------4-4-6-6-9-7--||
|-6-6-6-6-6-6-7-6-4-4-4-4-4-4-6-6-7-7-4-4-6-6-9-7--||
|-6-6-6-6-6-6-7-6-4-4-4-4-4-4-6-6-7-7-2-2-4-4-7-5-*||
|-4-4-4-4-4-4-5-4-2-2-2-2-2-2-4-4-5-5--------------||


Riff B (1:18)
||-------------------------------------------------||
||-------------------------------------------------||
||-6-6-6-6-6-6-6-6---------------------4-4-6-6-9-7-||
||-6-6-6-6-6-6-6-6-4-4-4-4-4-4-6-6-7-7-4-4-6-6-9-7-||
||-4-4-4-4-4-4-4-4-4-4-4-4-4-4-6-6-7-7-2-2-4-4-7-5-||
||-----------------2-2-2-2-2-2-4-4-5-5-------------||


Riff A (1:24)
||-------------------------------------------------|
||-------------------------------------------------|
||-6-6-6-6-6-6-7-6-4-4-4-4-4-4-6-4-2-2-2-2-2-2-4-2-|
||-6-6-6-6-6-6-7-6-4-4-4-4-4-4-6-4-2-2-2-2-2-2-4-2-|
||-4-4-4-4-4-4-5-4-2-2-2-2-2-2-4-2-0-0-0-0-0-0-2-0-|
||-------------------------------------------------|


|---------------------------------||
|---------------------------------||
|---------------------------------||
|-6-6-6-6-6-6-7-6-4~--------------||
|-6-6-6-6-6-6-7-6-4~--------------||
|-4-4-4-4-4-4-5-4-2~--------------||
Tap to rate this tab
# A B C D E F G H I J K L M N O P Q R S T U V W X Y Z