Song name
# A B C D E F G H I J K L M N O P Q R S T U V W X Y Z

Rudimentary Peni - Lost tab

Rudimentary Peni - Lost
Archaic EP (2004)
Tabbed By ruker
Standard Tuning EADGBE

--------------
Key:
--------------
.   Palm Mute
~   Vibrato
h   Hammer-On
p   Pull-Off
b   Bend
r   Release
/   Slide Up
\   Slide Down
--------------


Riff A (0:00)                    7x
||---------------------------------||
||*-------------------------------*||
||---------------------------------||
||--4-4-3-3-7-7-6-6-7-7-9-9-4------||
||*-4-4-3-3-7-7-6-6-7-7-9-9-4-----*||
||--2-2-1-1-5-5-4-4-5-5-7-7-2------||

Riff B (0:20)
||---------------------------------------------------------------------------------||
||---------------------------------------------------------------------------------||
||-------------------------6-6-6-6-----6-6-7-7-7-7---------6-6-6-6-----6-6-7-7-7-7-||
||-4-4-3-3-7-7-6-6-7-7-9-9-6-6-6-6-9-9-6-6-7-7-7-7-7-7-9-9-6-6-6-6-9-9-6-6-7-7-7-7-||
||-4-4-3-3-7-7-6-6-7-7-9-9-4-4-4-4-9-9-4-4-5-5-5-5-7-7-9-9-4-4-4-4-9-9-4-4-5-5-5-5-||
||-2-2-1-1-5-5-4-4-5-5-7-7---------7-7-------------5-5-7-7---------7-7-------------||

Riff A (0:30)                    5x
||---------------------------------||
||*-------------------------------*||
||---------------------------------||
||--4-4-3-3-7-7-6-6-7-7-9-9-4------||
||*-4-4-3-3-7-7-6-6-7-7-9-9-4-----*||
||--2-2-1-1-5-5-4-4-5-5-7-7-2------||

Riff B (0:50)
||---------------------------------------------------------------------------------||
||---------------------------------------------------------------------------------||
||-------------------------6-6-6-6-----6-6-7-7-7-7---------6-6-6-6-----6-6-7-7-7-7-||
||-4-4-3-3-7-7-6-6-7-7-9-9-6-6-6-6-9-9-6-6-7-7-7-7-7-7-9-9-6-6-6-6-9-9-6-6-7-7-7-7-||
||-4-4-3-3-7-7-6-6-7-7-9-9-4-4-4-4-9-9-4-4-5-5-5-5-7-7-9-9-4-4-4-4-9-9-4-4-5-5-5-5-||
||-2-2-1-1-5-5-4-4-5-5-7-7---------7-7-------------5-5-7-7---------7-7-------------||

Riff A (1:00)
||---------------------------------------------------------------------||
||---------------------------------------------------------------------||
||---------------------------------------------------------------------||
||-4-4-3-3-7-7-6-6-7-7-9-9-4------4-4-3-3-7-7-6-6-7-7-9-9-4~-----------||
||-4-4-3-3-7-7-6-6-7-7-9-9-4------4-4-3-3-7-7-6-6-7-7-9-9-4~-----------||
||-2-2-1-1-5-5-4-4-5-5-7-7-2------2-2-1-1-5-5-4-4-5-5-7-7-2~-----------||
Tap to rate this tab
# A B C D E F G H I J K L M N O P Q R S T U V W X Y Z