Song name
# A B C D E F G H I J K L M N O P Q R S T U V W X Y Z

Rudimentary Peni - Suffer tab

Rudimentary Peni - Suffer
Archaic EP (2004)
Tabbed By ruker
Standard Tuning EADGBE

--------------
Key:
--------------
.   Palm Mute
~   Vibrato
h   Hammer-On
p   Pull-Off
b   Bend
r   Release
/   Slide Up
\   Slide Down
--------------


Riff A (0:04)                      4x
||-----------------------------------||
||*---------------------------------*||
||-----------------------------------||
||--7-7-5-5-3-3-2-2-7-7-5-5-3-3-2-2--||
||*-7-7-5-5-3-3-2-2-7-7-5-5-3-3-2-2-*||
||--5-5-3-3-1-1-0-0-5-5-3-3-1-1-0-0--||



Riff B (0:21)                      2x
||-----------------------------------||
||*---------------------------------*||
||--7-7-5-5-3-3-2-2-7-7-5-5-3-3-2-2--||
||--7-7-5-5-3-3-2-2-7-7-5-5-3-3-2-2--||
||*-5-5-3-3-1-1-0-0-5-5-3-3-1-1-0-0-*||
||-----------------------------------||



Riff A (0:30)                      3x
||-----------------------------------||
||*---------------------------------*||
||-----------------------------------||
||--7-7-5-5-3-3-2-2-7-7-5-5-3-3-2-2--||
||*-7-7-5-5-3-3-2-2-7-7-5-5-3-3-2-2-*||
||--5-5-3-3-1-1-0-0-5-5-3-3-1-1-0-0--||



Riff B (0:43)                      2x
||-----------------------------------|----------------||
||*---------------------------------*|----------------||
||--7-7-5-5-3-3-2-2-7-7-5-5-3-3-2-2--|----------------||
||--7-7-5-5-3-3-2-2-7-7-5-5-3-3-2-2--|-5~-------------||
||*-5-5-3-3-1-1-0-0-5-5-3-3-1-1-0-0-*|-5~-------------||
||-----------------------------------|-3~-------------||
Tap to rate this tab
 
# A B C D E F G H I J K L M N O P Q R S T U V W X Y Z