Song name
# A B C D E F G H I J K L M N O P Q R S T U V W X Y Z

Runaways - Wasted tab

                         Wasted by The runaways (intro).

-------------------------------------------------------------------|
-------------------------------------------------------------------|
-----7--4-4-4-4-4-4-4--9-9-4-----7--4-4-4-4-4-4-4--9-9-4------9----|
--7--7--4-4-4-4-4-4-4--7-7-4--7--7--4-4-4-4-4-4-4--7-7-4---9--9----|
--7--5--2-2-2-2-2-2-2--7-7-2--7--5--2-2-2-2-2-2-2--7-7-2---9--7----|
--5---------------------------5----------------------------7-------|


-------------------------------------------------------------------|
-------------------------------------------------------------------|
--6-6-6-6-6-6-6-6--11-11-6------9----6-6-6-6-6-6-6--11-11-6------9-|
--6-6-6-6-6-6-6-6--11-11-6---9--9----6-6-6-6-6-6-6--11-11-6---9--9-|
--4-4-4-4-4-4-4-4--9--9--4---9--7----4-4-4-4-4-4-4--9--9--4---9--7-|
-----------------------------7--------------------------------7----|


------------------------------------|
------------------------------------|
--------11-9-7~--------7------------|
--9-8-7------------8-9---9----9-----| x4
------------------------------9-----|
------------------------------7-----|
Tap to rate this tab
 
# A B C D E F G H I J K L M N O P Q R S T U V W X Y Z