Song name
# A B C D E F G H I J K L M N O P Q R S T U V W X Y Z

Scout Niblett - Good To Me tab

Artist: Scout Niblett
Album: Kidnapped by Neptune
Song: Good to me

Tab typed by: Xander van Trigt (xandyxandicus@hotmail.com)

standard tuning

e ----------------------------------------------|
B ----------------------------------------------|
G ----------------------------------------------|   x4
D ----------------------------------------------|
A ----------------------------------------------|
E --0-0-0-2---0-2-0---11-11-11-12---12b(13)r----|


e ---------------------------------------------------|
B ---------------------------------------------------|
G ---------------------------------------------------|  x4
D ---------------------------------------------------|
A ---------------------------------------------------|
E -14-14-14-12---12-12-12---11-11-11-12---12-12-12---|


e ------------------------------------------|
B ------------------------------------------|
G ------------------------------------------|
D ------------------------------------------|
A ------------------------------------------|
E --12\7--7-7--13-12--10--10-10--5--5-5-5---|

e ------------------------------------------|
B ------------------------------------------|
G ------------------------------------------|  x2
D ------------------------------------------|
A ------------------------------------------|
E -----7--7-7--13-12--10--10-10--5--5-5-5---|

e --------------------------------------------|
B --------------------------------------------|
G --------------------------------------------|
D --------------------------------------------|
A --------------------------------------------|
E -----7--7-7--13-12--10--10-10--5--5-5-5-----|hold

Verse 1:
e ---------------------------------------------------------|
B ---------------------------------------------------------|
G -------------------------------------9--7----------------|
D ----------------9-----------7------0-9--7----------------|
A ----------------9-----------7------0-7--5--5-5-h-7-5-0---|
E ------------7-7---7-----5-5---5--------------------------|
You're so good       to me       honey

e ---------------------------------------------------------|
B ---------------------------------------------------------|
G -------------------------------------9--7----------------|
D ----------------9-----------7------0-9--7----------------|
A ----------------9-----------7------0-7--5--5-5-h-7-5-0---|
E ------------7-7---7-----5-5---5--------------------------|
You're so good       to me       honey yeah ah

e ---------------------------------------------------|
B ---------------------------------------------------|
G -------------------------------9--7----------------|
D ----------9-----------7------0-9--7----------------|
A ----------9-----------7------0-7--5--5-5-h-7-5-0---|
E ------7-7---7-----5-5---5--------------------------|
    good       to me       honey

e ---------------------------------------------------|
B ---------------------------------------------------|
G -------------------------------9--7----------------|
D ----------9-----------7------0-9--7----------------|
A ----------9-----------7------0-7--5--5-5-h-7-5-0---|
E ------7-7---7-----5-5---5--------------------------|
    good       to me       honey yeah ah

Verse 2:
e -----------------------------------------------------------|
B -----------------------------------------------------------|
G ---------------------------------------9--7----------------|
D ----------------9b----------7b-r-----0-9--7----------------|
A ----------------9b----------7b-r-----0-7--5--5-5-h-7-5-0---|
E ------------7-7---------5-5--------------------------------|
and if there's ever a way

e -----------------------------------------------------------|
B -----------------------------------------------------------|
G ---------------------------------------9--7----------------|
D ----------------9b----------7b-r-----0-9--7----------------|
A ----------------9b----------7b-r-----0-7--5--5-5-h-7-5-0---|
E ------------7-7---------5-5--------------------------------|
yeah if there's ever a way   yeah  ahhhh

Bridge:
e -----------------------------------------------------|
B -----------------------------------------------------|
G ---------------------------------9--7----------------|  x4
D ----------9b----------7b-r-----0-9--7----------------|
A ----------9b----------7b-r-----0-7--5--5-5-h-7-5-0---|
E ------7-7---------5-5--------------------------------|
    hoo        hoho         hooo

Verse 3:
e -------------------------------------------------------------|
B -------------------------------------------------------------|
G -----------------------------------------9--7----------------|
D ------------------9b----------7b-r-----0-9--7----------------|
A ------------------9b----------7b-r-----0-7--5--5-5-h-7-5-0---|
E --------------7-7---------5-5--------------------------------|
to see that smile     on you        honey

e -------------------------------------------------------------|
B -------------------------------------------------------------|
G -----------------------------------------9--7----------------|
D ------------------9b----------7b-r-----0-9--7----------------|
A ------------------9b----------7b-r-----0-7--5--5-5-h-7-5-0---|
E --------------7-7---------5-5--------------------------------|
to see that smile     on you        honey yeah ah

e -----------------------------------------------------|
B -----------------------------------------------------|
G ---------------------------------9--7----------------|
D ----------9b----------7b-r-----0-9--7----------------|
A ----------9b----------7b-r-----0-7--5--5-5-h-7-5-0---|
E ------7-7---------5-5--------------------------------|
  smile      on you         honey

e -----------------------------------------------------|
B -----------------------------------------------------|
G ---------------------------------9--7----------------|
D ----------9b----------7b-r-----0-9--7----------------|
A ----------9b----------7b-r-----0-7--5--5-5-h-7-5-0---|
E ------7-7---------5-5--------------------------------|
  smile      on you         honey  yeah ah

Bridge:
e -----------------------------------------------------|
B -----------------------------------------------------|
G ---------------------------------9--7----------------|  x4
D ----------9b----------7b-r-----0-9--7----------------|
A ----------9b----------7b-r-----0-7--5--5-5-h-7-5-0---|
E ------7-7---------5-5--------------------------------|
    hoo        hoho         hooo

e -------------------------------------------------|
B -------------------------------------------------|
G -----------------------------9--7----------------|  x4
D ------9b----------7b-r-----0-9--7----------------|
A ------9b----------7b-r-----0-7--5--5-5-h-7-5-0---|
E --7-7---------5-5--------------------------------|

Repeat Verse 1 and Bridge.

Open to any corrections or comments.

Scout Niblett: www.toopure.com
Tap to rate this tab
 
# A B C D E F G H I J K L M N O P Q R S T U V W X Y Z