Song name
# A B C D E F G H I J K L M N O P Q R S T U V W X Y Z

Seether - Fake It Acoustic tab

This is one of my favorite songs off of their new album. I noticed that most of the tabs
out so far didn't sound right to me so I decided to do it on my own. Let me know what
think by emailing me at cujodakillah@hotmail.com.

Seether: Fake It
Tuning: Drop C (Drop D tuned down 1/2 a step across the board)
Tabbed By: Chase Cornett
^ - bend (half step unless specified)
h - hammer
p - pull-off
v - vibrato
~ - let ring

Intro/Verse (listen to song for timing)
D#---------------------------------------------------------------------|
A#---------------------------------------------------------------------|
F#---2---2---x---x---5---5---x---x---5--5---x---x---0---0---0----------|
C#---0---0---x---x---3---3---x---x---5--5---x---x---0---0---0----------|
G#---0---0---x---x---3---3---x---x---3--3---x---x---0---0---0----------|
C ---0---0---x---x---3---3---x---x----------x---x---5---0---3----------|


Chorus (only slightly different from verse, same timing)
D#----------------------------------------------------------------------|
A#----------------------------------------------------------------------|
F#---2---2---x---x---2---2---x---x---5--5---x---x---5---5---0-----------|
C#---0---0---x---x---0---0---x---x---3--3---x---x---3---5---0-----------|
G#---0---0---x---x---0---0---x---x---3--3---x---x---3---3---0-----------|
C ---0---0---x---x---0---0---x---x---3--3---x---x---3-------0-----------|

 This is played three times and at the end of the third time He slips into
"OOOOOoooooh you're such a f*ckin' hypocrit"
He starts the "Oh" on
D#-----------|
A#-----------|
F#----7------|
C#----7------|
G#----5------|
C -----------| and then as he raises the pitch of his voice the guitar corresponds with 
going to
D#-----------|
A#-----------|
F#---10------|
C#---10------|
G#---8-------|
C -----------|
Then reacts to him dropping down in pitch on "...such..." by going to
D#-------|
A#-------|
F#---5---|
C#---5---|
G#---3---|
C -------| And finally returns to a familiar riff that leads into the next
verse on the word "...Hypocrit..."
D#----------------|
A#----------------|In this riff remember that each strum corresponds
F#----0----0---0--| to a syllable of the word Hypocrit. In other words
C#----0----0---0--|                /   /   /
G#----0----0---0--|                Hyp-O-Crit
C ----5----0---3--|                (/ = strum)

The finished product looks like this when timing is considered...
"...infection, ooooooOOOOOooh you're such a F#(]
                        
                    
Tap to rate this tab
# A B C D E F G H I J K L M N O P Q R S T U V W X Y Z