Sevendust - Last Breath tab

LAST BREATH - Bb F Bb Eb F Bb


Intro 1
(Guitar 1)
|-----------------------------------------------------------------|
|-----------------------------------------------------------------|
|-----------------------------------------------------------------|
|-----0-----0-----0-----0-----0-----0-----0-----0-----0-----0-----|
|-5/6---6\5---5/6---6/9---9\6---6\5---5\3---3/5---5/6---6\5---3/5-|
|-----------------------------------------------------------------|

(Guitar 2)
|-------------------------------------------------------------------|
|-12/13-13\12-12/13-13/15-15\13-13\12-12\10-10/12-12/13-13\12-10/12-|
|-------------------------------------------------------------------|
|-------------------------------------------------------------------|
|-------------------------------------------------------------------|
|-------------------------------------------------------------------|

Intro 2 
|-------------------------------------------------------------------------------|
|-------------------------------------------------------------------------------|
|-7-7-7-7-7-7-7-7-11-11-11---12-12-12---10-10-10-10-10-10-10-10-7-7-7-7-7-7-7-7-|
|-0-0-0-0-0-0-0-0--x--x--x----x--x--x----8--8--8--8--8--8--8--8-5-5-5-5-5-5-5-5-|
|-0-0-0-0-0-0-0-0--9--9--9-0-10-10-10-0--8--8--8--8--8--8--8--8-5-5-5-5-5-5-5-5-|
|-0-0-0-0-0-0-0-0----------0----------0--8--8--8--8--8--8--8--8-5-5-5-5-5-5-5-5-|

|--------------------------------------------------------------------|
|--------------------------------------------------------------------|
|-7-7-7-7-7-7-7-7-11-11-11---12-12-12------------------------------7-|
|-0-0-0-0-0-0-0-0--x--x--x----x--x--x---10----8----7----5----3--5--0-|
|-0-0-0-0-0-0-0-0--9--9--9-0-10-10-10-0-10----8----7----5----3--5--0-|
|-0-0-0-0-0-0-0-0----------0----------0-10----8----7----5----3--5--0-|

Verse
(Guitar 1)
|-0-------------------------------------------------------------------|
|---------0-----------------------0------------1----------------------|
|----------------------------------------0----------------------------| (x4)
|---------------------------------------------------------------------|
|---------------------------------------------------------------------|
|---------------------------------------------------------------------|
|---------------------------------------------------------------------|

(Guitar 2)
|-7-------7---5h7---7---------5h7-8.--8-5.----------5-5-5-5-5-5-5-----|
|---5-5-5---5-----5---5-5-5-5---------------5-8-5-8-------------------|
|---------------------------------------------------------------------|
|---------------------------------------------------------------------|
|---------------------------------------------------------------------|
|---------------------------------------------------------------------|
|---------------------------------------------------------------------|
  . . . . . .     . . . . . .               . . . . . . . . . . .
 
|-7-------7---5h7---7---------5h7-8.--8-7.--7-12.--12-10.--10-8.--5h7-|
|---5-5-5---5-----5---5-5-5-5-----------------------------------------|
|---------------------------------------------------------------------|
|---------------------------------------------------------------------|
|---------------------------------------------------------------------|
|---------------------------------------------------------------------|
|---------------------------------------------------------------------|
  . . . . . .     . . . . . .               

|-7-------7---5h7---7---------5h7-8.--8-5.----------5-5-5-5-5-5-5-----|
|---5-5-5---5-----5---5-5-5-5---------------5-8-5-8-------------------|
|---------------------------------------------------------------------|
|---------------------------------------------------------------------|
|---------------------------------------------------------------------|
|---------------------------------------------------------------------|
|---------------------------------------------------------------------|
  . . . . . .     . . . . . .               . . . . . . . . . . .

|-7---7-------7---7-------7---5h7-8.--8-5.----------5-5-5-5-5-5-5-----|
|---5---5-5-5---5---5-5-5---5---------------5-8-5-8-------------------|
|---------------------------------------------------------------------|
|---------------------------------------------------------------------|
|---------------------------------------------------------------------|
|---------------------------------------------------------------------|
|---------------------------------------------------------------------|
  . . . . . .     . . . . . .               . . . . . . . . . . .

(Verse 2, that last part goes like this)
|-7---7-------7---7-------7---5h7-8.--8-7.--7-8.--8-10.--10-17--------|
|---5---5-5-5---5---5-5-5---5------------------------------------15---|
|---------------------------------------------------------------------|
|---------------------------------------------------------------------|
|---------------------------------------------------------------------|
|---------------------------------------------------------------------|
|---------------------------------------------------------------------|
  . . . . . .     . . . . . .  
             
Pre Chorus (Those b13's are 12 bent to 13 and the b17's are 16 bent up to 17)
|--0--0--0--0--0--0--0--0--0--0--0--0--0--0--0--0--0--0--0--0--0--0--0--0--0--0--0--0--0--0--0--0-|
|-12-12-12-12-12-12-12-12-12-12-12-12-12b13b13b13b13b13b13b13b13b13b13b13b13b13b13b13b13b13b13b13-|
|-------------------------------------------------------------------------------------------------|
|-------------------------------------------------------------------------------------------------|
|-------------------------------------------------------------------------------------------------|
|-------------------------------------------------------------------------------------------------|
|-------------------------------------------------------------------------------------------------|

|--0--0--0--0--0--0--0--0--0--0--0--0--0--0--0--0--0--0--0--0--0--0--0--0-0-0-0-0-0-0-0-0-|
|-16b17b17b17b17b17b17b17-12-12-12-12-12-12-12-12-10-10-10-10-10-10-10-10-8-8-8-8-6-6-6-6-|
|-----------------------------------------------------------------------------------------|
|-----------------------------------------------------------------------------------------|
|-----------------------------------------------------------------------------------------|
|---------------------------------------------------------------( Guitar 2 -->  )-1-1-1-1-|
|---------------------------------------------------------------------------------1-1-1-1-|

Chorus 
|-------------------------------------------------------------------------------|
|-------------------------------------------------------------------------------|
|-7-7-7-7-7-7-7-7-11-11-11---12-12-12---10-10-10-10-10-10-10-10-7-7-7-7-7-7-7-7-|
|-0-0-0-0-0-0-0-0--0--0--0-0--0--0--0-0--8--8--8--8--8--8--8--8-5-5-5-5-5-5-5-5-|
|-0-0-0-0-0-0-0-0--0--0--0-0--0--0--0-0--8--8--8--8--8--8--8--8-5-5-5-5-5-5-5-5-|
|-0-0-0-0-0-0-0-0--0--0--0-0--0--0--0-0--8--8--8--8--8--8--8--8-5-5-5-5-5-5-5-5-|

|-------------------------------------------------------------------------------|
|-------------------------------------------------------------------------------|
|-7-7-7-7-7-7-7-7-11-11-11---12-12-12---10-10-10-10-10-10-10-10-7-7-7-7-5-5-5-5-|
|-0-0-0-0-0-0-0-0--0--0--0-0--0--0--0-0--8--8--8--8--8--8--8--8-5-5-5-5-3-3-3-3-|
|-0-0-0-0-0-0-0-0--0--0--0-0--0--0--0-0--8--8--8--8--8--8--8--8-5-5-5-5-3-3-3-3-|
|-0-0-0-0-0-0-0-0--0--0--0-0--0--0--0-0--8--8--8--8--8--8--8--8-5-5-5-5-3-3-3-3-|

|-------------------------------------------------------------------------------|
|-------------------------------------------------------------------------------|
|-----11\7---7------------------------------------------------------------------|
|------x-x---x-----3-3-3-3-3-3-3-3-5-5-5-5-5-5-5-5-1-1-1-1-1-1-1-1--------------|
|-0-0--9\5-0-5---0-3-3-3-3-3-3-3-3-5-5-5-5-5-5-5-5-1-1-1-1-1-1-1-1--------------|
|-0-0------0-----0-3-3-3-3-3-3-3-3-5-5-5-5-5-5-5-5-1-1-1-1-1-1-1-1--------------|

|-------------------------------------------------------------------------------|
|-------------------------------------------------------------------------------|
|-----11\7---7\5---5/7---7-8----------------------------------------------------|
|------x-x---x-x---x-x---x-x-----------3-3-3-3-3-3-3-3-8-8-8-8-5-5-5-5----------|
|-0-0--9\5-0-5\3-0-3/5-0-5/6-0-^5b6r5--3-3-3-3-3-3-3-3-8-8-8-8-5-5-5-5----------|
|-0-0------0-----0-----0-----0---------3-3-3-3-3-3-3-3-8-8-8-8-5-5-5-5----------|
  . .      .     .     .     .

End of Chorus
|---------------------------------------------------------------------------------|
|---------------------------------------------------------------------------------|
|-7-7-7-7-7-7-7-7-11-11-11---12-12-12---10-10-10-10-10-10-10-10-7-7-7-7---------7-|
|-0-0-0-0-0-0-0-0--x--x--x----x--x--x----8--8--8--8--8--8--8--8-5-5-5-5---------0-|
|-0-0-0-0-0-0-0-0--9--9--9-0-10-10-10-0--8--8--8--8--8--8--8--8-5-5-5-5-3-3-3-3-0-|
|-0-0-0-0-0-0-0-0----------0----------0--8--8--8--8--8--8--8--8-5-5-5-5-3-3-3-3-0-|
                                                                        . . . .

Bridge 1
|-----------------------------------------------------------------|
|-7-7-7-7-7-7-7-7-7-7-7-7-7-7-7-7-8-8-8-8-8-8-8-8-8-8-8-8-8-8-8-8-|
|-7-7-7-7-7-7-7-7-7-7-7-7-7-7-7-7-8-8-8-8-8-8-8-8-8-8-8-8-8-8-8-8-|
|-7-7-7-7-7-7-7-7-7-7-7-7-7-7-7-7-8-8-8-8-8-8-8-8-8-8-8-8-8-8-8-8-|

|-----------------------------------------------------------------|
|-5-5-5-5-5-5-5-5-5-5-5-5-5-5-5-5-3-3-3-3-3-3-3-3-----------------|
|-5-5-5-5-5-5-5-5-5-5-5-5-5-5-5-5-3-3-3-3-3-3-3-3-1-1-1-1-1-1-1-1-|
|-5-5-5-5-5-5-5-5-5-5-5-5-5-5-5-5-3-3-3-3-3-3-3-3-1-1-1-1-1-1-1-1-|
                                                  . . . . . . . . 
Bridge 2
(Guitar 1)
|------------------------------------------------------|
|------------------------------------------------------|
|------------------------------------------------------|
|------------------------------------------------------|
|-0-0-0-0----0--0-------0-0-0-0----0--0--0-0-----------|
|-0-0-0-0----0--0-------0-0-0-0----0--0--0-0-----------|
  . . . .    .  .       . . . .    .  .  . .

|------------------------------------------------------|
|------------------------------------------------------|
|------------------------------------------------------|
|------------------------------------------------------|
|-0-0-0-0----0--0-------0-0-0-0----0--0----------------|
|-0-0-0-0----0--0-------0-0-0-0----0--0----------------|
  . . . .    .  .       . . . .    .  .  

(Guitar 2)
|------------------------------------------------------------------|
|------------------------------------------------------------------|
|--------------------------------------------------5-5-5-5---3-3-3-|
|------------------------------5/7---7-------------5-5-5-5---3-3-3-|
|------9\5---5\3---3/5---5/6-----------5-----8\5---3-3-3-3---1-1-1-|
|-0-0------0-----0-----0-----0-----0-----0-0-----0-----------------|
  . .      .     .     .     .     .     . .     .

|------------------------------------------------------------------|
|------------------------------------------------------------------|
|--------------------------------------------------5-5-5-5.--------|
|------------------------------5/7---7-------------5-5-5-5.--------|
|------9\5---5\3---3/5---5/6-----------5-----8\5---3-3-3-3.--------|
|-0-0------0-----0-----0-----0-----0-----0-0-----0-----------------|
  . .      .     .     .     .     .     . .     .

Ending
|-------------------------------------------------------------------------------|
|-------------------------------------------------------------------------------|
|-7-7-7-7-7-7-7-7-11-11-11---12-12-12---10-10-10-10-10-10-10-10-7-7-7-7-7-7-7-7-|
|-0-0-0-0-0-0-0-0--x--x--x----x--x--x----8--8--8--8--8--8--8--8-5-5-5-5-5-5-5-5-|
|-0-0-0-0-0-0-0-0--9--9--9-0-10-10-10-0--8--8--8--8--8--8--8--8-5-5-5-5-5-5-5-5-|
|-0-0-0-0-0-0-0-0----------0----------0--8--8--8--8--8--8--8--8-5-5-5-5-5-5-5-5-|

|-------------------------------------------------------------------------|
|-------------------------------------------------------------------------|
|-7-7-7-7-7-7-7-7-11-11-11---12-12-12-------------------------------------|
|-0-0-0-0-0-0-0-0--x--x--x----x--x--x---10---8---7----.--5---7---3----1-.-|
|-0-0-0-0-0-0-0-0--9--9--9-0-10-10-10-0-10---8---7----.--5---7---3----1-.-|
|-0-0-0-0-0-0-0-0----------0----------0-10---8---7----.--5---7---3----1-.-|



X - muted string                (note). - immediately mute note
/ - slide up                    (note)  - palm mute
\ - slide down                    .
b - bend   
r - release                     (note)* - harmonic                             
h - hammer on                   
p - pull off                   ^(note)  - pinch harmonic
Tap to rate this tab
 
# A B C D E F G H I J K L M N O P Q R S T U V W X Y Z