Song name
# A B C D E F G H I J K L M N O P Q R S T U V W X Y Z

Seventh Day Slumber - Mighty To Save tab

-------------------------------------------------------------------------------
			   MIGHTY TO SAVE - Seventh Day Slumber
-------------------------------------------------------------------------------
Tabbed by: makutoid
Email: makutoid_@hotmail.com

Tuning: Drop D

This is literally the same song as the one by Hillsong, but with a new intro/interlude 
and a few minor details changed. So apologies if I don't pay much to attention to the 
parts other than intro riff, but I will do that bit properly as the guy before got 
it slightly out.


Intro
e|---------------------------------------------------------------|
B|---------------------------------------------------------------|
G|---------------------------------------------------------------|
D|-0--0--2-2------0---0--2-2------0--0--2-2------0---0--2-2------|
A|-0--0------4-4--0---0------4-4--0--0------4-4--0---0------4-4--|
D|-0--0-----------0---0-----------0--0-----------0---0-----------|

e|---------------------------------------------------------------|
B|---------------------------------------------------------------|
G|---------------------------------------------------------------|
D|-4--4--6-6------4---4--6-6------4--4--6-6------4-6-4-4-6-4-4---|
A|-4--4------7-7--4---4------7-7--4--4------7-7--4---4-4---4-4-7-|
D|-4--4-----------4---4-----------4--4-----------4---4-4---4-4---|

Verse
D                    A
  Everyone needs compassion
                    F#m
A love that's never failing
    E
Let mercy fall on me
D                    A
  Everyone needs forgiveness
                  F#m
The kindness of a saviour
    E
The hope of nations

e|------------------------------------------------|
B|------------------------------------------------|
G|------------------------------------------------|
D|-0---0--x-x-x--2--2--2---0---0--x-x-x--2--2--2--|
A|-0---0--x-x-x--2--2--2---0---0--x-x-x--2--2--2--|
D|-0---0--x-x-x--2--2--2---0---0--x-x-x--2--2--2--|


Chorus
A                        E
Saviour, He can move the mountains
          D          A          F#m        E
My God is mighty to save, He is mighty to save
   A                  E
Forever, author of salvation,
             D            A             F#m           E
He rose and conquered the grave, Jesus conquered the grave


Bridge
D                     A                    E
  Shine Your light and let the whole world see
      F#m    D             A           E       F#m
We're singing for the glory of the Risen King, Jesus


Really basic song, the riff sounds awesome and is great for transitioning from praise to 
worship :) May need one guitar in drop D for the riff and another in standard for the 
chords, but that's another problem.

Happy playing, email me if you have any problems :)

************************************

| /   slide up
| \   slide down
| h   hammer-on
| p   pull-off
| ~   vibrato
| +   harmonic
| x   Mute note
| b   Bend
| pb  Pre-bend
| br  Bend release
| pbr Pre-bend release
| brb Bend release bend

************************************
Tap to rate this tab
 
# A B C D E F G H I J K L M N O P Q R S T U V W X Y Z