Song name
# A B C D E F G H I J K L M N O P Q R S T U V W X Y Z

She Wants Revenge - Hidden Track tab

Help us improve GuitareTab! Take a short survey!
Hidden Track (13) - She Wants Revenge
Album: She Wants Revenge

Guitar With Slighty Distortion

|--------------||
|--------------||
|--------------||X
|--------------||2
|-0--0-2--2-3--||
|--------------||

|--------------||
|--------------||
|--------------||X
|--------------||2
|-5--5-3--3-2--||
|--------------||


In Verse
|----------|----------|----------|----------|
|----------|----------|----------|----------|
|----------|----------|----------|----------|
|----------|----------|----------|----------|
|-0--2--3--|-0--2--3--|-5--3--2--|-5--3--2--|
|----------|----------|----------|----------|


In The Climax (without voice)
|-------------------------|-------------------------||
|-------------------------|-------------------------||
|-------------------------|-------------------------||
|-------------------------|-------------------------||
|-------------------------|-------------------------||
|-5-5-5-5-5-5-5-5-5-5-5-5-|-8-8-8-8-8-8-8-8-8-8-8-8-||


|-------------------------|-------------------------||
|-------------------------|-------------------------||
|-------------------------|-------------------------||
|-------------------------|-------------------------||
|-------------------------|-------------------------||
|/2-2-2-2-2-2-2-2-2-2-2-2-|-1-1-1-1-1-1-1-5-5-3-3-5-||

In The Climax (voice)
|-------------------------|-------------------------||
|-------------------------|-------------------------||
|-------------------------|-------------------------||
|-------------------------|-------------------------||
|-------------------------|-------------------------||
|-5---5---5---5---5---5---|-8---8---8---8---8---8---||


|-------------------------|-------------------------||
|-------------------------|-------------------------||
|-------------------------|-------------------------||
|-------------------------|-------------------------||
|-------------------------|-------------------------||
|/2---2---2---2---2---2---|-1---1---1---1-5-5-3-3-5-||
Related for Hidden Track tab