Song name
# A B C D E F G H I J K L M N O P Q R S T U V W X Y Z

She Wants Revenge - Disconnect tab

-------------------------------------------------------------------------------
     DISCONNECT - She Wants Revenge
-------------------------------------------------------------------------------
Tabbed by: Gustavo Collado

Tuning: EADGBe

[Piano arranged for guitar]

e|------------------------------------------------------|
B|------------------------------------------------------|
G|-15-13-11---10-----10h11h10r-10-11-13r------13----10r-|
D|-----------8---11r---------------------(11)----11-----|
A|----------8-------------------------------------------|
E|------------------------------------------------------|

e|-------------------------|
B|-------------------------|
G|-10-------10-------8-----|
D|----8-11r----8-11r---11r-|
A|-------------------------|
E|-------------------------|

e|-------------------------------------------------------------------------|
B|-------------------------------------------------------------------------|
G|----8-10r------10h11h10-13----10---10---10r-10---------------------------|
D|-11-------(11)-------------11----8----8--------8-11r-11h13h11r-11h13h11r-|
A|-------------------------------------------------------------------------|
E|-------------------------------------------------------------------------|

e|-------------------------------------------------------------------------------|
B|-------------------------------------------------------------------------------|
G|-10-------------------------10----10-------------------------------------------|
D|----11-11/10-11h13h11-11-13----8r----8-11r-13-11-10r-10-11-10-8-13-11-------10-|
A|-------------------------------------------------------------------------(8)---|
E|----------------------------------------------------------------------(8)------|

e|-----------------------------------------------------------------------|
B|-----------------------------------------------------------------------|
G|----------10----10h11h10r-13-11-10---10---10r-10----------8------------|
D|-11-13-(8)---11--------------------8----8--8r----8--11r-8---11r-10-11r-| 
A|---------------------------------------------------(9r)----------------|
E|-----------------------------------------------------------------------| 

e|------------------------------------------------------------------------------|
B|------------------------------------------------------------------------------|
G|-10-8---------------------10---10---------------------------------------------|
D|------11r-11h13h11r-11-13----8----8-11r-11-13-11r-11-13-10r-11-10-8r-8r-8r-8r-|
A|------------------------------------------------------------------------------|
E|------------------------------------------------------------------------------| 
Tap to rate this tab
# A B C D E F G H I J K L M N O P Q R S T U V W X Y Z