Song name
# A B C D E F G H I J K L M N O P Q R S T U V W X Y Z

She Wants Revenge - Tear You Apart tab

For Ultimate-guitar (good page)

It is a nice song n_n
Band: She Wants Revenge
Song: Tear You Apart
Tuning: E A D G B E (Standard)

Intro  Use the Palm-mute effect
----xxxx----|e
----xxxx----|B
----xxxx----|G
----xxxx----|D
----xxxx----|A
----xxxx----|E

Guitar comes in about 1:04 after song starts:
(repeat)
------------------------------------------|e
------------------------------------------|B
------------------------------------------|G
------------------------------------------|D
------------------------------------------|A
-2-2-2-2-2-2-2-2-2-2-2-2-2/55-5555/2-2-2--|E

Chorus: (x) "optional notes"
---------------------------------------------------|e
---------------------------------------------------|B
---------------------------------------------------|G
-(4)--(4)--(4)-(4)-(4)-(4)--(4)-(4)-(11)(11)(11)---|D
---------------------------------------------------|A
-2-2-2-2-2-2-2-2-2-2-2-2-2-2-2-4h2/9-9-9-9-9-9----|-E

(x) "optional notes"
---------------------------------|e
---------------------------------|B
---------------------------------|G
(11)(11)(11)(11)(11)(11)(11)\----|D
---------------------------------|A
9-9-9-9-9-9-9-9-9-9-9-9-9-9-9\---|E

(x) "optional notes"
----------------------------------|e
----------------------------------|B
----------------------------------|G
(9)-(9)--(9)-(9)--(9)-(9)-(9)-(9)-|D
----------------------------------|A
7-7-7-7-7-7-7-7-7-7-7-7-7-7-7-7---|E

(x) "optional notes"
----------------------------------|e
----------------------------------|B
----------------------------------|G
(7)-(7)-(7)-(7)-(7)-(7)-(7)-(7)---|D
----------------------------------|A
5-5-5-5-5-5-5-5-5-5-5-5-5-5-5-5---|E


Verse:
(several times)
------------------------------------------|e
------------------------------------------|B
------------------------------------------|G
------------------------------------------|D
------------------------------------------|A
-2-2-2-2-2-2-2-2-2-2-2-2-2/55-5555/2-2-2--|E


Chorus: again...

"Solo"
	  Palm-mute  -   (~) vibrato & delay
------------xxxx---------------------------------------------------------|e
------------xxxx---------------------------------------------------------|B
------------xxxx---5~ -6~ -9~ -8~ -11~ -10~ -5~ -6~ -14~ -13~ -16~ -18~ -|G
------------xxxx---------------------------------------------------------|D
------------xxxx---------------------------------------------------------|A
-2-2-2-{2}--xxxx---------------------------------------------------------|E



Chorus: (x) "optional notes"
---------------------------------------------------|e
---------------------------------------------------|B
---------------------------------------------------|G
-(4)--(4)--(4)-(4)-(4)-(4)--(4)-(4)-(11)(11)(11)---|D
---------------------------------------------------|A
-2-2-2-2-2-2-2-2-2-2-2-2-2-2-2-4h2/9-9-9-9-9-9-----|E

(x) "optional notes"
---------------------------------|e
---------------------------------|B
---------------------------------|G
(11)(11)(11)(11)(11)(11)(11)\----|D
---------------------------------|A
9-9-9-9-9-9-9-9-9-9-9-9-9-9-9\---|E

(x) "optional notes"
----------------------------------|e
----------------------------------|B
----------------------------------|G   ---->>> Ends Here :P
(9)-(9)--(9)-(9)--(9)-(9)-(9)-(9)-|D
----------------------------------|A
7-7-7-7-7-7-7-7-7-7-7-7-7-7-7-7---|E

(x) "optional notes"
----------------------------------|e
----------------------------------|B
----------------------------------|G
(7)-(7)-(7)-(7)-(7)-(7)-(7)-(7)---|D
----------------------------------|A
5-5-5-5-5-5-5-5-5-5-5-5-5-5-5-5---|E


Tab by Jarckled
samuz64@hotmail.com
For questions.
I speak spanish too.
Tap to rate this tab
# A B C D E F G H I J K L M N O P Q R S T U V W X Y Z