Song name
# A B C D E F G H I J K L M N O P Q R S T U V W X Y Z

She Wants Revenge - Sleep tab

-------------------------------------------------------------------------------
			     SLEEP - She Wants Revenge
-------------------------------------------------------------------------------
Tabbed by: Gustavo Collado

Tuning: EADGBe


Intro

e|----------------------------|
B|----------------------------|
G|-77777777-88888888----------|
D|-------------------88888888-|
A|----------------------------|
E|----------------------------|

e|------------------------------------|
B|------------------------------------|
G|-77777777-88888888-1010101010101010-|
D|------------------------------------|
A|------------------------------------|
E|------------------------------------|


Verse 1
(Right off the bath, you just shoot down everything...)

e|-----------------------------|
B|-----------------------------|
G|-(10r)-(7-8r)----(7r)--------|
D|--------------(8)-----(5-8r)-|
A|-----------------------------|
E|-----------------------------|

e|----------------------------|
B|----------------------------|
G|-77777777-88888888----------|
D|-------------------88888888-|
A|----------------------------|
E|----------------------------|

e|------------------------------------|
B|------------------------------------|
G|-77777777-88888888-1010101010101010-|
D|------------------------------------|
A|------------------------------------|
E|------------------------------------|


Chorus 1
(Now the table's turning...)

e|-11-11-12-12-|
B|-------------|
G|-------------| X12
D|-------------|
A|-------------|
E|-------------|

e|-6r-8r-|
B|-------|
G|-------|
D|-------|
A|-------|
E|-------|

e|-11-11-12-12-|
B|-------------|
G|-------------| X12
D|-------------|
A|-------------|
E|-------------|

e|-6r-8r-|
B|-------|
G|-------|
D|-------|
A|-------|
E|-------|

e|----------------------------|
B|----------------------------|
G|-77777777-88888888----------|
D|-------------------88888888-|
A|----------------------------|
E|----------------------------|

e|------------------------------------|
B|------------------------------------|
G|-77777777-88888888-1010101010101010-|
D|------------------------------------|
A|------------------------------------|
E|------------------------------------|


Verse 2
(I've got a mind, to just tell you everything...)

e|-----------------------------|
B|-----------------------------|
G|-(10r)-(7-8r)----(7r)--------|
D|--------------(8)-----(5-8r)-|
A|-----------------------------|
E|-----------------------------|

e|----------------------------|
B|----------------------------|
G|-77777777-88888888----------|
D|-------------------88888888-|
A|----------------------------|
E|----------------------------|

e|------------------------------------|
B|------------------------------------|
G|-77777777-88888888-1010101010101010-|
D|------------------------------------|
A|------------------------------------|
E|------------------------------------|


Chorus 2
(Now the table's turning...)

e|-11-11-12-12-|
B|-------------|
G|-------------| X12
D|-------------|
A|-------------|
E|-------------|

e|-6r-8r-|
B|-------|
G|-------|
D|-------|
A|-------|
E|-------|

e|-11-11-12-12-|
B|-------------|
G|-------------| X12
D|-------------|
A|-------------|
E|-------------|

e|-6r-8r-|
B|-------|
G|-------|
D|-------|
A|-------|
E|-------|


Bridge

e|---------------------------------------------|
B|---------------------------------------------|
G|-1010101010101010-77777777-------------------|
D|---------------------------77788777-55555555-|
A|---------------------------------------------|
E|---------------------------------------------|


[The synth pays this: ]
e|--------------------8-10-11r-11-8-10-8---------------------|
B|------------6/10-8r--------------------11-10-8r-11-10-8-6r-|
G|-10r-7r-(7)------------------------------------------------|
D|-----------------------------------------------------------|
A|-----------------------------------------------------------|
E|-----------------------------------------------------------|


Chorus 3/Outro
(Now the table's turning...)

e|-11-11-12-12-|
B|-------------|
G|-------------| X12
D|-------------|
A|-------------|
E|-------------|

e|-6r-8r-|
B|-------|
G|-------|
D|-------|
A|-------|
E|-------|

e|-11-11-12-12-|
B|-------------|
G|-------------| X12
D|-------------|
A|-------------|
E|-------------|

e|-6r-8r-|
B|-------|
G|-------|
D|-------|
A|-------|
E|-------|

e|-11-11-12-12-|
B|-------------|
G|-------------| X12
D|-------------|
A|-------------|
E|-------------|

e|-6r-8r-|
B|-------|
G|-------|
D|-------|
A|-------|
E|-------|

e|-11-11-12-12-|
B|-------------|
G|-------------| X12
D|-------------|
A|-------------|
E|-------------|

e|-6r-8r-|
B|-------|
G|-------|
D|-------|
A|-------|
E|-------|
Tap to rate this tab
 
# A B C D E F G H I J K L M N O P Q R S T U V W X Y Z