Song name
# A B C D E F G H I J K L M N O P Q R S T U V W X Y Z

Sick Puppies - My World tab

Watch them live, this is how shim plays it

Tuning is Drop C

Verse Guitar One
|-------------------------------------------------------------------------------|
|-------------------------------------------------------------------------------|
|-10-10-10-10-10-10-7-7-8-8-8-8-8-8-7-7-10-10-10-10-10-10-10-10-8-8-8-8-7-7-7-7-|
|-------------------------------------------------------------------------------|
|-------------------------------------------------------------------------------|
|-------------------------------------------------------------------------------|

Verse Guitar Two
|-----------------------------------------------------------------------------------|
|-----------------------------------------------------------------------------------|
|-----------------------------------------------------------------------------------|
|-------------------------------------------------------------------7-7-7-7-7-7-7-7-|
|--7-7-7-7-7-7-7-7--10--10--10--10--10--10--10--10-3-3-3-3-3-3-3-3-5-5-5-5-5-5-5-5--|
|-7-7-7-7-7-7-7-7-10--10--10--10--10--10--10--10--3-3-3-3-3-3-3-3-------------------|

Chorus Both Guitars
|-----------------------------------------------------------------|
|-6-6-6-6-5-5-5-5-6-6-6-6-5-5-5-5-6-6-6-6-5-5-5-5-6-6-6-6-5-5-5-5-|
|-5-5-5-5-5-5-5-5-5-5-5-5-5-5-5-5-5-5-5-5-5-5-5-5-5-5-5-5-5-5-5-5-|
|-3-3-3-3-3-3-3-3-3-3-3-3-3-3-3-3-0-0-0-0-0-0-0-0-0-0-0-0-0-0-0-0-|
|-3-3-3-3-3-3-3-3-3-3-3-3-3-3-3-3-0-0-0-0-0-0-0-0-0-0-0-0-0-0-0-0-|
|-3-3-3-3-3-3-3-3-3-3-3-3-3-3-3-3-0-0-0-0-0-0-0-0-0-0-0-0-0-0-0-0-|

|----------------------------------------------------------------------------|
|-11-11-11-11-11-11-11-11-11-11-11-11----------------------------------------|
|-10-10-10-10-10-10-10-10-10-10-10-10--------5-5-5-5-5-5-5-5-5-5-5-5-5-5-5-5-|
|--8--8--8--8--8--8--8--8--8--8--8--8-x-3b---5-5-5-5-5-5-5-5-5-5-5-5-5-5-5-5-|
|--8--8--8--8--8--8--8--8--8--8--8--8-x-3b---3-3-3-3-3-3-3-3-3-3-3-3-3-3-3-3-|
|--8--8--8--8--8--8--8--8--8--8--8--8-x-3b-----------------------------------|

|-----------------------------------------------------------------|
|-6-6-6-6-5-5-5-5-6-6-6-6-5-5-5-5-6-6-6-6-5-5-5-5-6-6-6-6-5-5-5-5-|
|-5-5-5-5-5-5-5-5-5-5-5-5-5-5-5-5-5-5-5-5-5-5-5-5-5-5-5-5-5-5-5-5-|
|-3-3-3-3-3-3-3-3-3-3-3-3-3-3-3-3-0-0-0-0-0-0-0-0-0-0-0-0-0-0-0-0-|
|-3-3-3-3-3-3-3-3-3-3-3-3-3-3-3-3-0-0-0-0-0-0-0-0-0-0-0-0-0-0-0-0-|
|-3-3-3-3-3-3-3-3-3-3-3-3-3-3-3-3-0-0-0-0-0-0-0-0-0-0-0-0-0-0-0-0-|

|------------------------------------------------------------|
|-11-11-11-11-11-11-11-11-11-11-11-11------------------------|
|-10-10-10-10-10-10-10-10-10-10-10-10--------5-5-----5-------|
|--8--8--8--8--8--8--8--8--8--8--8--8-x-3b---5-5-----5-0-----|
|--8--8--8--8--8--8--8--8--8--8--8--8-x-3b---3-3-----3-0-----|
|--8--8--8--8--8--8--8--8--8--8--8--8-x-3b-------------0-----|

|-----------------------------------------------------------------|
|-6-6-6-6-5-5-5-5-6-6-6-6-5-5-5-5-6-6-6-6-5-5-5-5-6-6-6-6-5-5-5-5-|
|-5-5-5-5-5-5-5-5-5-5-5-5-5-5-5-5-5-5-5-5-5-5-5-5-5-5-5-5-5-5-5-5-|
|-3-3-3-3-3-3-3-3-3-3-3-3-3-3-3-3-0-0-0-0-0-0-0-0-0-0-0-0-0-0-0-0-|
|-3-3-3-3-3-3-3-3-3-3-3-3-3-3-3-3-0-0-0-0-0-0-0-0-0-0-0-0-0-0-0-0-|
|-3-3-3-3-3-3-3-3-3-3-3-3-3-3-3-3-0-0-0-0-0-0-0-0-0-0-0-0-0-0-0-0-|

Bridge Guitar One
------------------------------------------------------------------------|
------------------------------------------------------------------------|
-8---8---8---8---7---7---7---7---10---10---10---10---10---10---10---7---|
---8---8---8---8---8---8---8---8----8----8----8----8----8----8----8---8-|
------------------------------------------------------------------------|
------------------------------------------------------------------------|

------------------------------------------------------------------------|
------------------------------------------------------------------------|
-8---8---8---8---7---7---7---7---10---10---10---10---10---10---10---10--|
---8---8---8---8---8---8---8---8----8----8----8----8----8----8----8---8-|
------------------------------------------------------------------------|
------------------------------------------------------------------------|

--------------------------------------------------|
--------------------------------------------------|
-10---10---10---10---10---10---10---10------8-----|
----8----8----8----8----8----8----8---------8-----|
--------------------------------------------6-----|
--------------------------------------------------|

Solo
-------------------------------------------------------------------------|
-8---10-10-10-10-10-10-10-10---6-6-6-6--8--10-10-10-10-10-10-10-10-------|
-------------------------------------------------------------------5-5-5-|
-------------------------------------------------------------------------|
-------------------------------------------------------------------------|
-------------------------------------------------------------------------|

---------------|
---------------|
-5-5-7-7-7-7---|
---------------|
---------------|
---------------|

------------------------------------------------------------------------|
-8---10-10-10-10--8---13-13-13-13--10-10-10-10--13-13-13-13---6/8---4/6-|
------------------------------------------------------------------------|
------------------------------------------------------------------------|
------------------------------------------------------------------------|
------------------------------------------------------------------------|

---------------------------------------|
-1/3--1--------------------------------|
--------3-3-5----3-5----8-7------------|
--------------------------------5------|
---------------------------------------|
---------------------------------------|
Tap to rate this tab
# A B C D E F G H I J K L M N O P Q R S T U V W X Y Z