Song name
# A B C D E F G H I J K L M N O P Q R S T U V W X Y Z

Sing It Loud - Over You tab

---------------------------------------------------------------------------
			     Over You- Sing It Loud
---------------------------------------------------------------------------
Tabbed by: Alli Blackerby
Email: ablackerby@bellsouth.net

Tuning: Standard


Intro:
e|-----0-----0---0------0-------0-----0------0------0-------------------|
B|-9-----9------------------------5-----5------5------5-----------------|
G|---9-----9---8---8--8----8--6------6-----6------6---------------------|x2
D|----------------------------------------------------------------------|
A|----------------------------------------------------------------------|
E|----------------------------------------------------------------------|

Verse: (strumming not shown)
e|--7---------4----5--------------------------------------------------------|
B|--9---------4----5--------------------------------------------------------|
G|--9----8----6----6--------------------------------------------------------|
D|--9----9----6----7--------------------------------------------------------|
A|--7----6----4----7--------------------------------------------------------|
E|-----------------5--------------------------------------------------------|

PreChorus:
e|------------------------------------------------------------------------|
B|------------------------------------------------------------------------|
G|--2-2-2-2-2-2-2-2-2-2-2-2-----------------------------------------------|
D|--2-2-2-2-2-2-2-2-2-2-2-2-----7~----------------------------------------|
A|--0-0-0-0-0-0-0-0-0-0-0-0-----7~----------------------------------------|
E|------------------------------5~----------------------------------------|
         x  x  x  x  x  x  x   x   x  x   x  x

Chorus: (strumming not shown)
e|--7---------4----5--------------------------------------------------------|
B|--9---------4----5--------------------------------------------------------|
G|--9----8----6----6--------------------------------------------------------|
D|--9----9----6----7--------------------------------------------------------|
A|--7----6----4----7--------------------------------------------------------|
E|-----------------5--------------------------------------------------------|

Solo:
e|------------------------------------------------------------------------|
B|--9----------------9----------------9-10-9------------------------------|
G|-----11-9h11p9--9----11--9h11p9--9---------11---9-----------------------|
D|------------------------------------------------------------------------|
A|------------------------------------------------------------------------|
E|------------------------------------------------------------------------|

e|-----------------7---------7---7---------7--7~-----------------------------|
B|------9/10\9--7------------------------------------------------------------|
G|-11--------------9--8h9----------9--8h9------------------------------------|
D|---------------------------------------------------------------------------|
A|---------------------------------------------------------------------------|
E|---------------------------------------------------------------------------|

e|------7------7-----------7-----7-------------------------------------------|
B|---------------------------------------------------------------------------|
G|-8h9----8h9-----8h9--8h9---8h9---8h9---------------------------------------|
D|---------------------------------------------------------------------------|
A|---------------------------------------------------------------------------|
E|---------------------------------------------------------------------------|

e|------------------------------------------------------------------------|
B|--10-9-10-9-------------------------------------------------------------|
G|------------9-------9-------9-------9-11/13\11--9h11-9-9----------------|
D|---------------9-11----9h11----9h11-------------------------------------|
A|------------------------------------------------------------------------|
E|------------------------------------------------------------------------|

e|------------------------------------------------------------------------|
B|---10-9----9------------------------------------------------------------|
G|--------11---11-9-------------------------------------------------------|
D|------------------------------------------------------------------------|
A|------------------------------------------------------------------------|
E|------------------------------------------------------------------------|
Tap to rate this tab
# A B C D E F G H I J K L M N O P Q R S T U V W X Y Z