Song name
# A B C D E F G H I J K L M N O P Q R S T U V W X Y Z

Sing It Loud - Fade Away tab

By: leonel lopez
mail: cone.sk8@hotmail.com


E|----------------------------------|
B|----------------------------------|
G|----------------------------------|
D|--77--77--77--77--55--55--55--55--|  X4
A|--77--77--55--55--55--55--55--55--|
e|--55--55--55--55--33--33--33--33--|


  Baby can we get....
E|----------------------------------|
B|----------------------------------|
G|----------------------------------|
D|--77--77--77--77--55--55--55--55--|  X4
A|--77--77--55--55--55--55--55--55--|
e|--55--55--55--55--33--33--33--33--|
PM  ..  ..  ..  ..  ..  ..  ..  ..


  Singin' in....
E|----------------------------------|
B|----------------------------------|
G|----------------------------------|
D|--7~------------/------------5~---|  
A|--7~------------/------------5~---|
e|--5~------------/------------3~---|


  You're all I need...
E|---------------------------|
B|---------------------------|
G|---------------------------|
D|--5-5-5-5-5-5-7-7-7-7-7-7--|  X3
A|--5-5-5-5-5-5-7-7-7-5-5-5--|
e|--3-3-3-3-3-3-5-5-5-5-5-5--|


...and fade away.
E|----------------------------|
B|----------------------------|
G|----------------------------|
D|--7-7-7-7-7-7-7-7-5-5-5-5~--|  
A|--7-7-7-7-5-5-5-5-5-5-5-5~--|
e|--5-5-5-5-5-5-5-5-3-3-3-3~--|


E|----------------------------------|
B|----------------------------------|
G|----------------------------------|
D|--77--77--77--77--55--55--55--55--|  X2
A|--77--77--55--55--55--55--55--55--|
e|--55--55--55--55--33--33--33--33--|


  Baby can we get...
E|----------------------------------|
B|----------------------------------|
G|----------------------------------|
D|--77--77--77--77--55--55--55--55--|  X4
A|--77--77--55--55--55--55--55--55--|
e|--55--55--55--55--33--33--33--33--|
PM  ..  ..  ..  ..  ..  ..  ..  ..


  You're all I need...
E|---------------------------|
B|---------------------------|
G|---------------------------|
D|--5-5-5-5-5-5-7-7-7-7-7-7--|  X3
A|--5-5-5-5-5-5-7-7-7-5-5-5--|
e|--3-3-3-3-3-3-5-5-5-5-5-5--|


...and fade away.
E|----------------------------|
B|----------------------------|
G|----------------------------|
D|--7-7-7-7-7-7-7-7-5-5-5-5~--|  
A|--7-7-7-7-5-5-5-5-5-5-5-5~--|
e|--5-5-5-5-5-5-5-5-3-3-3-3~--|



  INTERMEDIO
E|-----------------------------------|
B|-----------------------------------|
G|-----------------------------------|
D|-----------------------------------|  X3
A|--999999-7/99999-7/999/777/555555--|
e|--777777-5/77777-5/777/555/333333--|



  And I can hear you coming clean...
E|-------------------------|
B|-------------------------|
G|-------------------------|
D|--555555555557777777777--|  X2
A|--555555555557777555555--|
e|--333333333335555555555--|
PM  .. .... .. .. . .. .


  You're all I need...
E|---------------------------|
B|---------------------------|
G|---------------------------|
D|--5-5-5-5-5-5-7-7-7-7-7-7--|  X3
A|--5-5-5-5-5-5-7-7-7-5-5-5--|
e|--3-3-3-3-3-3-5-5-5-5-5-5--|


...and fade awaaaaaaaaaaaaaaaaaaaa....
E|--------------------------------|
B|--------------------------------|
G|--------------------------------|
D|--7-7-7-7-7-7-7-7-5-5-5-5-5-5-5-|  
A|--7-7-7-7-5-5-5-5-5-5-5-5-5-5-5-|
e|--5-5-5-5-5-5-5-5-3-3-3-3-3-3-3-|

 ..aaaaaaaaaaay, 
E|----------------------------------|
B|----------------------------------|
G|----------------------------------|
D|--77--77--77--77--55--55--55--55--|  
A|--77--77--55--55--55--55--55--55--|
e|--55--55--55--55--33--33--33--33--|


   ...fade away,fade away.
E|-------------------------------|
B|-------------------------------|
G|-------------------------------|
D|--77--77--77--77--55--55--5/3--|  
A|--77--77--55--55--55--55--5/3--|
e|--55--55--55--55--33--33--3/1--|


END! =)









Tap to rate this tab
 
# A B C D E F G H I J K L M N O P Q R S T U V W X Y Z