Song name
# A B C D E F G H I J K L M N O P Q R S T U V W X Y Z

Skillet - Savior tab

This is the LIVE solo by Ben Kasica at the end of their awesome song Savior. Hope you 
it!
questions: irockutube101@gmail.com
IRockUtube101 is my youtube page, i'll post a video of me playing it. Soon I will have 
Inside into
on here, so keep checking to see if it's up!! :)

This song, as you all should already know, is in Drop D.

Guitar 1:
[------------------------------------]
[------------------------------------]
[-7-7-7-5-5-5-10--10--14-12----12----]
[--7-7-7-7-7-7--10--10-----9-12--12/-]
[------------------------------------]
[------------------------------------]

[--------8---11---13---15-]
[-10--8--x----x----x----x-]
[--x--x--5----8---10---12-] - These repeat a lot and fast. just a waste to put it all down
[--7--5-------------------] - but you can figure it out :) the song is on youtube
[-------------------------] - Skillet Savior LIVE
[-------------------------]

so i hope you liked it!! i was really excited when i figured it out, and now your turn :)
Tap to rate this tab
 
# A B C D E F G H I J K L M N O P Q R S T U V W X Y Z