Song name
# A B C D E F G H I J K L M N O P Q R S T U V W X Y Z

Slash - By The Sword tab

-----------------------------------------------------------------------------
			     By The Sword - Slash & Friends
-----------------------------------------------------------------------------
Tabbed by: Jungle90fr

Demo : http://www.youtube.com/watch?v=BYTI1TxNVLM
Solo from this video : http://www.youtube.com/watch?v=FSIGqbq1KMU

Tuning: Eb Ab Db Gb Bb eb

| p  pre-bend
| b  bend
| br bend release
| /  slide up
| \  slide down
| h  hammer-on
| p  pull-off


e|---------------------|-----------------------------------|
B|--8------------------|-----------------------------------|
G|--7b--7b----5--7-----|--------5--7b--7b--7b----5--7------|
D|------------------3--|--5h-7-------------------------4---|
A|---------------------|-----------------------------------|
E|---------------------|-----------------------------------|



e|-------------------------|---------------------------------------5--|
B|-------------------------|------------------------------------------|
G|--------5--10br---9--10--|--10--9--7--9--7\-5--7--5h-7p-5\-4/-5-----|
D|--5h-7-------------------|------------------------------------------|
A|-------------------------|------------------------------------------|
E|-------------------------|------------------------------------------|


          +2
e|-----------------------------------------------14brbrbrbr-----------|
B|--10--13br---10------13brbrbrbr----12brbrbrbr-----------------12br--|
G|-----------------12-------------------------------------------------|
D|--------------------------------------------------------------------|
A|--------------------------------------------------------------------|
E|--------------------------------------------------------------------|



e|------12--17--13--12--13--12\-10--12--10\-8--10--8\-7h-8p-7--5--|
B|--13------------------------------------------------------------|
G|----------------------------------------------------------------|
D|----------------------------------------------------------------|
A|----------------------------------------------------------------|
E|----------------------------------------------------------------|



e|--15b--15b---p15--12-------------------------------|
B|----------------------p15--13------13--15------13--|
G|-------------------------------14----------14------|
D|---------------------------------------------------|
A|---------------------------------------------------|
E|---------------------------------------------------|



e|-------------------------------------|
B|--15--13--15br-----13------15b--15b--|
G|-----------------------14------------|
D|-------------------------------------|
A|-------------------------------------|
E|-------------------------------------|



e|----------------------------------------------------------|
B|--15b--15b--15b--15b--13--15------12--13--12h-13p-12------|
G|------------------------------14----------------------14--|
D|----------------------------------------------------------|
A|----------------------------------------------------------|
E|----------------------------------------------------------|



e|--------------12---------------------------15b--15b--|
B|--12--13--15------p15--13--15p-13------13------------|
G|-----------------------------------14----------------|
D|-----------------------------------------------------|
A|-----------------------------------------------------|
E|-----------------------------------------------------|


             +1/2   +1/2 +1/2   +1/2         +2
e|--17--19--19b----19b--19b----p19--17------20b--20--17------17--------|
B|--------------------------------------17---------------20-------20b--|
G|---------------------------------------------------------------------|
D|---------------------------------------------------------------------|
A|---------------------------------------------------------------------|
E|---------------------------------------------------------------------|


                                                             +1/2
e|--17---------------20-------------------------------------------|
B|------20--17--20b------p20--17-------20-------------------------|
G|--------------------------------19b------p19-------17--19--19b--|
D|----------------------------------------------------------------|
A|----------------------------------------------------------------|
E|----------------------------------------------------------------|
Tap to rate this tab
# A B C D E F G H I J K L M N O P Q R S T U V W X Y Z