Song name
# A B C D E F G H I J K L M N O P Q R S T U V W X Y Z

Slash - By The Sword chords

Just thought I would tab the intro that I have right now. Will edit once I have figured 
rest of the song out. Any contribution welcome!
First Riff (and variations)

e|----------------5----------|
B|----------------5----------|
G|------5---------6----------|
D|--5----7-7p5--5-7----------|
A|-7-7--------7---7----------|
E|----------------5----------|

e|----------------2----------|
B|----------------2----------|
G|------7-5-------3----------|
D|--5------7p5--5-4----------|
A|-7-7--------7---4----------|
E|----------------2----------|

e|----------------1----------|
B|----------------1----------|
G|------5-4-2p0-0-2----------|
D|--5----------2--3----------|
A|-7-7------------3----------|
E|----------------1----------|

Second Riff

e|---------------------------|
B|---------------------------|
G|--------------------2------|
D|--------------------2------|
A|--------3-----------0------|
E|-0h3p0----5-5p3p0-3-0------|

e|---------------------------|
B|---------------------------|
G|---------------------------|
D|--------------------4------|
A|--------5-3---------4------|
E|-0h3p0------5p3p0-3-2------|

e|-----------------------------|
B|-----------------------------|
G|-----------------------------|
D|---------------------3-------|
A|--------3-2---------3--------|
E|-0h3p0-------5p3p0-3-1-------|

e|---------------------------|
B|---------------------------|
G|---------------------2-----|
D|---------------------2-----|
A|--------3b-----------0-----|
E|-0h3p0-----5-5p3p0-3-0-----|
Tap to rate this tab
# A B C D E F G H I J K L M N O P Q R S T U V W X Y Z