Guitaretab - guitar tabs
Song name
# A B C D E F G H I J K L M N O P Q R S T U V W X Y Z

Slipknot - Everything Ends tab

band: slipknot
song: everything ends
tabbed by: george williams

TUNING: Drop D and down 1 and 1/2 step (B F# B E G# C#)

Key:
8x : Repeat
PM : Palm mute
b  : bend
^  : Artificial harmonic
/  : Slide up

RIFF 1

C#|---------------------------------------------------|
G#|---------------------------------------------------|
E |---------------------------------------------------|
B |---------------------------------------------------|
F#|--2(8x)---1(8x)------------------------------------|
B |-----------------2(8x)--5(8x)--4(14x)--2-2--0(16x)-|

 PM                 You are the end of everything!!!!!!

RIFF 2

C#|-------------------------------------------------------|
G#|-------------------------------------------------------|
E |-------------------------------------------------------|
B |-----------------------------------------------------1-|
F#|-----------------------------------------------------1-|
B |--0--2b--0-0--1b--0--0-0-0--5b--0--3b-0-0-1b-0-0-0-0-1-|

RIFF 3

C#|--------------------------------------------------------|
G#|--------------------------------------------------------|
E |--------------------------------------------------------|
B |-----2-------1------------4-----3-------1-----------1---|
F#|--0--2--0-0--1--0--0-0-0--4--0--3--0-0--1---0-0-0-0-1---|
B |--0--2--0-0--1--0--0-0-0--4--0--3--0-0--1---0-0-0-0-1---|

RIFF 4   (Verse)

C#|-------------------------------------------------------|
G#|-------------------------------------------------------|
E |-------------------------------------------------------|
B |-------2---2---2-----2---------------------------------|
F#|-------2---2---2-----2---------------------------------|
B |---0-0-2-0-2-0-2-0-0-2---------------------------------|

   PM

RIFF 5
[ Tab from: http://www.guitaretab.com/s/slipknot/23105.html ]
C#|-------------------------------------------------------|
G#|-------------------------------------------------------|
E |-------------------------------------------------------|
B |-------------------------------------------------------|
F#|-------------------------------------------------------|
B |---0-0--5b-0-5b-0-0-0---2--3--2--1---------------------|

RIFF 6

C#|-------------------------------------------------------|
G#|-------------------------------------------------------|
E |-------------------------------------------------------|
B |-------------------------------------------------------|
F#|-------------------------------------------------------|
B |-0-5b-0-5b-0-0-0-5b-0-5b-0-0-0-5b-0-5b-0-0-0---5/-0----|

RIFF 7

C#|-------------------------------------------------------|
G#|-------------------------------------------------------|
E |-------------------------------------------------------|
B |--0--1--3--1-------------------------------------------|
F#|--0--1--3--1-------------------------------------------|
B |--0--1--3--1--0--5^--0--5^-----------------------------|

RIFF 8

C#|-------------------------------------------------------|
G#|-------------------------------------------------------|
E |-------------------------------------------------------|
B |--0--1--3--1--0---2-1-0--2-1-0--0----------------------|
F#|--0--1--3--1--0---2-1-0--2-1-0--0----------------------|
B |--0--1--3--1--0---2-1-0--2-1-0--0----------------------|


ORDER

RIFF 1 2X  (INTRO)
RIFF 2 2X
RIFF 3 2X
RIFF 4 MANY TIMES  (VERSE)
RIFF 5 2X
RIFF 1 2X  (CHORUS)
RIFF 2 2X
RIFF 4 MANY TIMES  (VERSE)
RIFF 5 2X
RIFF 1 4X  (CHORUS)
RIFF 6
RIFF 7 4X
RIFF 8 4X
RIFF 7 8X
RIFF 8 4X
RIFF 6 2X
RIFF 1 4X  (CHORUS)
RIFF 3 4X
END.

thanks for looking and i hope it helps!
Related for Everything Ends tab
Advertisement will be closed in 10 seconds