Song name
# A B C D E F G H I J K L M N O P Q R S T U V W X Y Z

Social Distortion - Dear Lover tab

Intro

eb|--0-0-0000--0-0-0000------------2-2-2320--|   eb|--0~--|
Bb|--0-0-0000--1-1-1111------------3-3-3333--|   Bb|--3~--|
Gb|--0-0-0000--0-0-0000--0-0-0000--2-2-2222--|x4 Gb|--2~--|
Db|--2-2-2222--2-2-2222--0-0-0000--0-0-0000--|   Db|--0~--|
Ab|--2-2-2222--3-3-3333--2-2-2222------------|   Ab|------|
Eb|--0-0-0000------------3-3-3333------------|   Eb|------|

eb|-------------------------------|
Bb|-------------------------------|
Gb|----------------5--5--5-7-7----|x4
Db|--2--2--2-5-5---5--5--5-7-7----|
Ab|--2--2--2-5-5---3--3--3-5-5-0--|
Eb|--0--0--0-3-3-0----------------|

Verse
eb|-------------------------------|
Bb|-------------------------------|
Gb|----------------5--5--5-7-7----|x8
Db|--2--2--2-5-5---5--5--5-7-7----|
Ab|--2--2--2-5-5---3--3--3-5-5-0--|
Eb|--0--0--0-3-3-0----------------|

Yeah, loving
Over and over again now
It ain't nothing girl
Till you've felt the pain
Up against the wall
Why does love always have to hurt?
Your scratches run across my back
And then a tear

Chorus
e|---------------------------------------|
B|---------------------------------------|
G|-----------5-5-555-----------7-7-777---|x4
D|--2-2-222--5-5-555--5-5-555--7-7-777---|
A|--2-2-222--3-3-3330-5-5-555--5-5-5550--|
E|--0-0-0000----------3-3-3330-----------|

Dear lover
I can't take the pain no more
Dear lover
I pick my heart up from the floor
Dear lover
I can't believe it's come to this
Dear lover
Give me one last
Painful kiss

eb|-------------------------------|
Bb|-------------------------------|
Gb|----------------5--5--5-7-7----|x2
Db|--2--2--2-5-5---5--5--5-7-7----|
Ab|--2--2--2-5-5---3--3--3-5-5-0--|
Eb|--0--0--0-3-3-0----------------|

Verse
eb|-------------------------------|
Bb|-------------------------------|
Gb|----------------5--5--5-7-7----|x8
Db|--2--2--2-5-5---5--5--5-7-7----|
Ab|--2--2--2-5-5---3--3--3-5-5-0--|
Eb|--0--0--0-3-3-0----------------|

There ain't nothin'
In this world for free now
So how high of a price
Will you pay
Hear the screams so loud
Wake up to the broken glass
It's a scene from bad to worse
And many more tears

Chorus
e|---------------------------------------|
B|---------------------------------------|
G|-----------5-5-555-----------7-7-777---|x4
D|--2-2-222--5-5-555--5-5-555--7-7-777---|
A|--2-2-222--3-3-3330-5-5-555--5-5-5550--|
E|--0-0-0000----------3-3-3330-----------|

Dear lover
I can't take the pain no more
Dear lover
I pick my heart up from the floor
Dear lover
I can't believe it's come to this
Dear lover
Give me one last
Painful kiss

eb|-------------------------------|
Bb|-------------------------------|
Gb|----------------5--5--5-7-7----|x2
Db|--2--2--2-5-5---5--5--5-7-7----|
Ab|--2--2--2-5-5---3--3--3-5-5-0--|
Eb|--0--0--0-3-3-0----------------|

Solo

eb|------------------------------------------------------------------|
Bb|-----------------------------------------868-8-8-66-8-88-8-66-----|
Gb|------------------------------5~-7~-55~---------------------------|
Db|--2-2/ 5--7--2-2/ 5--7--7-7-7-------------------------------------|
Ab|--2-2/(5)----2-2/(5)----------------------------------------------|
Eb|--0-0--------0-0--------------------------------------------------|



eb|------------------------------------------------------------------|
Bb|-3-3-------------13.13.13-13.13.13-16-16-16p13.13.13-11-11-11h13--|
Gb|------5-5-3-3-3---------------------------------------------------|
Db|------------------------------------------------------------------|
Ab|------------------------------------------------------------------|
Eb|------------------------------------------------------------------|



eb|------------------------------------------------------------------|
Bb|-13.13-11-9-9h11.11.11-11~----------------------------------------|
Gb|-------------------------------------------------------5~-7~-55~--|
Db|---------------------------2-2/ 5--7--2-2/ 5--7--7-7-7------------|
Ab|---------------------------2-2/(5)----2-2/(5)---------------------|
Eb|---------------------------0-0--------0-0-------------------------|


Chorus
e|---------------------------------------|
B|---------------------------------------|
G|-----------5-5-555-----------7-7-777---|x4
D|--2-2-222--5-5-555--5-5-555--7-7-777---|
A|--2-2-222--3-3-3330-5-5-555--5-5-5550--|
E|--0-0-0000----------3-3-3330-----------|

Dear lover
I can't take the pain no more
Dear lover
I pick my heart up from the floor
Dear lover
I can't believe it's come to this
Dear lover
Give me one last
Painful kiss

Outro
eb|-------------------------------|   eb|-----|
Bb|-------------------------------|   Bb|-----|
Gb|----------------5--5--5-7-7----|x3 Gb|--0~-|
Db|--2--2--2-5-5---5--5--5-7-7----|   Db|--2~-|
Ab|--2--2--2-5-5---3--3--3-5-5-0--|   Ab|--2~-|
Eb|--0--0--0-3-3-0----------------|   Eb|--0~-|

One last kiss [x3]
Tap to rate this tab
 
# A B C D E F G H I J K L M N O P Q R S T U V W X Y Z