Song name
# A B C D E F G H I J K L M N O P Q R S T U V W X Y Z

Social Distortion - When The Angels Sing tab

Intro (Guitar 1) x 4

e|----------------------------|
B|----------------------------|
G|10--10--7-------------------|
D|10--10--7--10--8----8h10----|
A|-8---7--5--10--8----8h10----|
E|------------8--6----6h-8----|

Intro (Guitar 2)
e|---------------------------------------------------------|
B|---------------------------------------------------------|
G|10--10-10-9--9-9-7--7-7-5h7-7-5-5h7-5h7--5-7-7-7-5-5-5---|
D|---------------------------------------------------------|
A|---------------------------------------------------------|
E|---------------------------------------------------------|

e|---------------------------------------------------------|
B|---------------------------------------------------------|
G|10--10-10-9--9-9-9h12--12-10-9-10-10-9-7-9-7-5-7-5-5-5---|
D|---------------------------------------------------------|
A|---------------------------------------------------------|
E|---------------------------------------------------------|

Verse X 4
e|------------------------------------------------------|
B|------------------------------------------------------|
G|--------------------------------3--3--3-3-3-3-5-5-5---|
D|3-3-3-3-3-3-3-3-3-3-3-3-3-3-3-3-3--3--3-3-3-3-5-5-5---|
A|3-3-3-3-3-3-3-3-3-3-3-3-3-3-3-3-1--1--1-1-1-1-3-3-3---|
E|1-1-1-1-1-1-1-1-1-1-1-1-1-1-1-1-----------------------|
  . .   . . .   . . .   . . .   .

Chorus (guitar 1 intro: x 2 for first chorus, X 4 for second & last)

Solo part 1 (X 2)
e|--------------------------------------------------------------|
B|--------------------------------------------------------------|
G|-------------7--7---------------------------------------------|
D|----------7--------7-7-----7----------------------------------|
A|8--8-8-10--------------10-----8--8----68--8--10-12--10--8-8-8-|
E|------------------------------------67------------------------|

part 2 (Guitar 2 intro)

It's probably about 95% correct (or so I'm guessing). Enjoy1
Tap to rate this tab
# A B C D E F G H I J K L M N O P Q R S T U V W X Y Z